Megadeth - Crush Em Chords & Tabs

 

Crush Em Chords & Tabs

Megadeth Chords & Tabs

Version: 3 Type: Bass Tab 0 ratings
1 star 2 stars 3 stars 4 stars 5 stars
comments

Crush Em Bass Tab

Crush 'Em - Megadeth

By: Jon Craven (i_apathy@hotmail.com)
For questions, comments, feedback, an outline of the timing, write the above
address.

Note:
  -Played with a pick.

(4/4)(118 bpm)
5-string in standard tuning

* - note held for an eighth beat
r - eighth rest
. - sixteenth rest

Verse (fill 1): (x12)(0:12)
|-----------------|----------------|
|-----------------|----------------|
|--8---8---8---11-|--8---8---6---7-|
|-----------------|----------------|
|6---6---6---9----|6---6---4---5---|

Pre-chorus: (0:53)
|---------------------|-------------------|---------------------|
|---------------------|-------------------|---------------------|
|--11---11---11----14-|--11---11---9---10-|--11---11---11----14-|
|---------------------|-------------------|---------------------|
|9----9----9----12----|9----9----7---8----|9----9----9----12----|

|-------------------|------------------|----------------|------------------|
|-------------------|--9---9---9----12-|--9---9---7---8-|--9---9---9----12-|
|--11---11---9---10-|------------------|----------------|------------------|
|-------------------|7---7---7---10----|7---7---5---6---|7---7---7---10----|
|9----9----7---8----|------------------|----------------|------------------|

|----------------|
|--9---9---9---9-|
|----------------|
|7---7---7---7---|
|----------------|

Chorus 1: (1:09)
|----------------|----------------|----------------|----------------|
|----------------|----------------|----------------|----------------|
|----------------|----------------|----------------|----------------|
|2-*-*-*-*-*-*-*-|5-*-*-*-*-*-*-*-|2-*-*-*-*-*-*-*-|7-*-*-*-*-*-*-*-|
|----------------|----------------|----------------|----------------|

|-----------------|----------------|----------------|----------------|
|-----------------|----------------|----------------|----------------|
|-----------------|----------------|------------4-2-|*-*-*-*-*-*-*-*-|
|10-*-*-*-*-*-*-*-|0-*-*-*-*-*-*-*-|2-*-*-*-*-*-----|----------------|
|-----------------|----------------|----------------|----------------|

Fill 1 (x2)
Verse (x4)
Pre-chorus
Chorus 1 (x2)

Fill 2: (2:38)
|----------------|----------------|----------------|----------------|
|----------------|----------------|----------------|----------------|
|----------------|----------------|----------------|----------------|
|1-*-*-*-*-*-*-*-|*-*-*-*-*-*-*-*-|*-*-*-*-*-*-*-*-|*-*-*-*-*-*-*-*-|
|----------------|----------------|----------------|----------------|
[ Tab from: http://www.guitartabs.cc/tabs/m/megadeth/crush_em_btab_ver_3.html ]
Interlude: (2:46)
|----------------|----------------|----------------|----------------|
|----------------|----------------|----------------|----------------|
|----------------|----------------|--------1-*-*-*-|*-*-*-*-*-*-*-*-|
|1-1-r-.14-*-*-*-|*-*-*-*-*-*-*-*-|1-1-r-.1--------|----------------|
|----------------|----------------|----------------|----------------|

|----------------|----------------|----------------|----------------|
|----------------|----------------|----------------|----------------|
|----------------|----------------|--------1-*-*-*-|*-*-*-*-*-*-*-*-|
|1-1-r-.14-*-*-*-|*-*-*-*-*-*-*-*-|1-1-r-.1--------|----------------|
|----------------|----------------|----------------|----------------|

|----------------|----------------|----------------|----------------|
|----------------|----------------|----------------|----------------|
|----------------|--------1-*-*-*-|----------------|--------4-6-*-*-|
|1-1-r-.14-*-*-*-|1-1-r-.1--------|1-1-r-.14-*-*-*-|1-1-r-.1--------|
|----------------|----------------|----------------|----------------|

|----------------|----------------|----------------|----------------|
|----------------|----------------|----------------|----------------|
|----------------|--------1-*-*-*-|----------------|--------4-6-*-*-|
|1-1-r-.14-*-*-*-|1-1-r-.1--------|1-1-r-.14-*-*-*-|1-1-r-.1--------|
|----------------|----------------|----------------|----------------|

Chorus 2: (x2)(3:19)
|----------------|----------------|----------------|----------------|
|----------------|----------------|----------------|----------------|
|----------------|----------------|----------------|3-*-*-*-*-*-*-*-|
|3-*-*-*-*-*-*-*-|6-*-*-*-*-*-*-*-|3-*-*-*-*-*-*-*-|----------------|
|----------------|----------------|----------------|----------------|

|----------------|----------------|----------------|----------------|
|----------------|----------------|----------------|----------------|
|6-*-*-*-*-*-*-*-|----------------|------------5-3-|*-*-*-*-*-*-*-*-|
|----------------|1-*-*-*-*-*-*-*-|3-*-*-*-*-*-----|----------------|
|----------------|----------------|----------------|----------------|

Outro: (x8)(fades on 7th repeat)
|----------------|----------------|----------------|----------------|
|----------------|----------------|----------------|----------------|
|----------------|--------3-*-*-*-|----------------|--------6-8-*-*-|
|3-3-r-.36-*-*-*-|3-3-r-.3--------|3-3-r-.36-*-*-*-|3-3-r-.3--------|
|----------------|----------------|----------------|----------------|
Comments