Megadeth - Breakpoint Chords & Tabs

 

Breakpoint Chords & Tabs

Megadeth Chords & Tabs

Version: 2 Type: Tab 0 ratings
1 star 2 stars 3 stars 4 stars 5 stars
comments

Breakpoint Tab

-----------------------------------------------------------------------------
                           Breakpoint - Megadeth
-----------------------------------------------------------------------------
Tabbed By: holywars

Tuning:Standerd
[ Tab from: http://www.guitartabs.cc/tabs/m/megadeth/breakpoint_tab_ver_2.html ]
|---------------------------|---------------------------|
|---------------------------|---------------------------|
|---------------------------|---------------------------|
|---------------------------|---------------------------| x3 Times
|---------------------------|---------------------------|
|--2---2-2-2---2-2---2---2--|--2---2-2-2---2-2---2---2--|
   =   =====   ===   =         =   =====   ===   =   = 

|-----------|
|-----------|
|-----------|
|--4--2--4--|
|--4--2--4--|
|--2--0--2--|
Comments