Megadeth - Breakpoint Chords & Tabs

 

Breakpoint Chords & Tabs

Megadeth Chords & Tabs

Version: 1 Type: Tab 0 ratings
1 star 2 stars 3 stars 4 stars 5 stars
comments

Breakpoint Tab

Breakpoint
Transcibed by Christopher Heer
Standard Tuning

Intro
--------------------
--------------------
--------------------
---------4----------  7x
---------4----------
--2-2222-2---0-4200-

-----------------
-----------------
-----------------
-------4-2-4-----
-------4-2-4-----
-2-222-2-0-2-----

Verse
--------------------
--------------------
--------------------
---------4----------	
---------4----------
--2-2222-2---0-4320-
[ Tab from: http://www.guitartabs.cc/tabs/m/megadeth/breakpoint_tab.html ]
Pre-chorus
------------------------------------
------------------------------------
------------------------------------
---------------2--------------------
-----4-----5-4---5-2-----4-4-2-4----
------------------------4-4---------
--02----03------------02------------

Chorus(1st part)
------------------
------------------
------------------
--5---8-----------
--3-5-6-8---6-5---
----3---6---4-3---

Chorus(2nd part)
----------------
----------------
----------------
--5---8---------
--3-5-6-8-------
----3---6-------
Comments