Megadeth - Black Curtains Chords & Tabs

 

Black Curtains Chords & Tabs

Megadeth Chords & Tabs

Version: 1 Type: Bass Tab 0 ratings
1 star 2 stars 3 stars 4 stars 5 stars
comments

Black Curtains Bass Tab

   
Band- Megadeth
Song- Black Curtains

Tuning - E A D G

Part 1
|-----------------------|-----------------------|-------------|
|-----------------------|-----------------------|-------------|
|-----------------------|-----------------------|-------------|
|-0-0-0-0-0-0-1---------|-0-0-0-0-0-0-1---------|-0-0-1/3-1/3-|

Part 2 
|--------------|----------------------|--------------|------------------|
|--------------|----------------------|--------------|------------------|
|----------2-5-|----------------------|----------2-5-|------------------|
|-0--0--0------|-0--0-5/6-5/6-2/3-2/3-|-0--0--0------|-0-0-5/6-5/6--3---|

[ Tab from: http://www.guitartabs.cc/tabs/m/megadeth/black_curtains_btab.html ]
Part 3
|-----------------------------------|-----------------------------------|
|-----------------------------------|-----------------------------------|
|--------5-4------5-4-------------2-|--------5-4------5-4-------------3-|
|-2--2-2------2-2-----2-0-2-5-2-0---|-2--2-2------2-2-----2-0-2-5-2-0---|

Part 4
|----------------------------------|------------------------------|
|----------------------------------|------------------------------|
|---2-5-1--4-2-4-2---2-5-7---------|---2-5-1-4-2-4-2---2-5-7-----|
|-0----------------0-------2/3-2/3-|-0----------------0-------2/3-|

Part 5 - solo
|------------------|------------------|------------------|-------------------|
|------------------|------------------|------------------|-------------------|
|------------------|------------------|------------------|-1-1--1-1----------|
|-3-2--2-2-2-2-2-2-|-0-0--0-0-0-0-0-0-|-3-3--3-3-3-3-3-3-|----------1-1--1-1-|
Comments