Megadeth - Bad Omen Chords & Tabs

 

Bad Omen Chords & Tabs

Megadeth Chords & Tabs

Version: 1 Type: Tab 0 ratings
1 star 2 stars 3 stars 4 stars 5 stars
comments

Bad Omen Tab

Bad Omen
Transcribed by Alistair B. Rintoul (hangar18@planet.eon.net)
Standard Tuning

Notes: I Think Solos 2 & 3 Are Done By Dave, But I'm Not Sure

Intro
Guitar 1:
|-----------------|-----------------|-----------------|-----------------|
|-------8---------|---7-------------|-------8---------|---7-------------|
|-----9---9-------|-9---------------|-----9---9-------|-9---------------|
|---9-------9---8-|-----------------|---9-------9---8-|-----------------|
|-7-----------7---|-----------------|-7-----------7---|-----------------|
|-----------------|-----------------|-----------------|-----------------|
|                                                                       |
|Guitar 2:                                                              |
|-----------------|-----------------|-----------------|-----------------|
|-------8---------|---7-------------|-------8---------|---7-------------|
|-----9---9-------|-9---------------|-----9---9-------|-9---------------|
|---9-------9---8-|-----------------|---9-------9---8-|-----------------|
|-7-----------7---|-----------------|-7-----------7---|-----------------|
|-----------------|-----------------|-----------------|-----------------|

|-----------------|-----------------|-----------------|-----------------|
|-------8---------|---7-------------|-------8---------|---7-------------|
|-----9---9-------|-9---9---------9-|-----9---9-------|-9---9---------9-|
|---9-------9---8-|-------8---8-----|---9-------9---8-|-------8---8-----|
|-7-----------7---|---------7---7---|-7-----------7---|---------7---7---|
|-----------------|-----------------|-----------------|-----------------|
|                                                                       |
|-----------------|-----------------|-----------------|-----------------|
|-------8---------|---7-------------|-------8---------|---7-------------|
|-----9---9-------|-9---9---------9-|-----9---9-------|-9---9---------9-|
|---9-------9---8-|-------8---8-----|---9-------9---8-|-------8---8-----|
|-7-----------7---|---------7---7---|-7-----------7---|---------7---7---|
|-----------------|-----------------|-----------------|-----------------|

                                                    Electric Guitar W/Crunch Distorion
|-------------------------|------------------------|--------------------|
|-----------8-------------|-----7------------------|--------------------|
|--------9-----9----------|--9-----9-------------9-|-----------------3--|
|-----9-----------9-----8-|-----------8-----8------|--------2--------3--|
|--7-----------------7----|--------------7-----7---|--------5--------1--|
|-------------------------|------------------------|--------6-----------|
|                                                                       |       
|-------------------------|------------------------|--------------------|
|-----------8-------------|-----7------------------|--------------------|
|--------9-----9----------|--9-----9-------------9-|--------9-----------|
|-----9-----------9-----8-|-----------8-----8------|--------9--------8--|
|--7-----------------7----|--------------7-----7---|--------7--------8--|
|-------------------------|------------------------|-----------------6--|

          P.M.........|             P.M...............................|
|------------------------|-----------------------|----------------------|
|---------15---14---13---|-----------------------|----------------------|
|---------14---13---13---|-9---------------------|----------------------|
|---------12---11---10---|-9---------------------|----------------------|
|------------------------|-7---------------------|----------------------|
|------------------------|----------6--7--6--7--6|--7--6--7--6--3--5--3-|
|                                                                       |
|         P.M.........|             P.M...............................| |                
|------------------------|-----------------------|----------------------|
|---------15---14---13---|-----------------------|----------------------|
|---------14---13---13---|-9--------x--x--x--x--x|--x--x--x--x--x--x--x-|
|---------12---11---10---|-9--------x--x--x--x--x|--x--x--x--x--x--x--x-|
|------------------------|-7--------x--x--x--x--x|--x--x--x--x--x--x--x-|
|------------------------|-----------------------|----------------------|

                                  P.M.........|            P.M.........|
|-----------------------|-----------------------|-----------------------|
|-----------------------|---------15---14---13--|-----------------------|
|--------------------3--|---------14---13---13--|-9---------------------|
|----------2---------3--|---------12---11---10--|-9---------------------|
|----------5---------1--|-----------------------|-7---------------------|
|----------6------------|-----------------------|----------6--7--6--7--6|
|                                                                       |
|                                 P.M.........|            P.M.........||
|-----------------------|-----------------------|-----------------------|
|-----------------------|---------15---14---13--|-----------------------|
|----------9------------|---------14---13---13--|-9--------x--x--x--x--x|
|----------9---------8--|---------12---11---10--|-9--------x--x--x--x--x|
|----------7---------8--|-----------------------|-7--------x--x--x--x--x|
|--------------------6--|-----------------------|-----------------------|

 P.M..................|
|----------------------|-------------------------|-----------------------|
|----------------------|-----------8-------------|----7------------------|
|----------------------|--------9-----9----------|-9-----9-------------9-|
|----------------------|-----9-----------9-----8-|----------8-----8------|
|----------------------|--7-----------------7----|-------------7-----7---|
|--7--6--7--6--3--5--3-|-------------------------|-----------------------|
|                                                                        |
|P.M..................|                                                  |
|----------------------|-------------------------|-----------------------|
|----------------------|-------------------------|-----------------------|
|--x--x--x--x--x--x--x-|-------------------------|-----------------------|
|--x--x--x--x--x--x--x-|-------------------------|-----------------------|
|--x--x--x--x--x--x--x-|-------------------------|-----------------------|
|----------------------|-------------------------|-----------------------|


|------------------------|-----------------------|------------------------|
|----------8-------------|----7------------------|----------8-------------|
|-------9-----9----------|-9-----9-------------9-|-------9-----9----------|
|----9-----------9-----8-|----------8-----8------|----9-----------9-----8-|
|-7-----------------7----|-------------7-----7---|-7-----------------7----|
|------------------------|-----------------------|------------------------| 
|                                                                         |
|-16---------------------|-----------------------|-16---------------------|
|------------------------|-----------------------|------------------------|
|------------------------|-----------------------|------------------------|
|------------------------|-----------------------|------------------------|
|------------------------|-----------------------|------------------------|
|------------------------|-----------------------|-12---------------------|


|-----------------------|------------------------|------------------------|
|----7------------------|----------8-------------|----7-------------------|
|-9-----9-------------9-|-------9-----9----------|-9-----9--------------9-|
|----------8-----8------|----9-----------9-----8-|----------8-----8-------|
|-------------7-----7---|-7-----------------7----|-------------7-----7----|
|-----------------------|------------------------|------------------------| 
|                                                                         |
|-----------------------|-16---------------------|------------------------|
|-----------------------|------------------------|------------------------|
|-----------------------|------------------------|------------------------|
|-----------------------|------------------------|------------------------|
|-----------------------|------------------------|------------------------|
|-----------------------|-12---------------------|------------------------|

                                  P.M.........|            P.M.........|
|-----------------------|-----------------------|-----------------------|
|-----------------------|---------15---14---13--|-----------------------|
|--------------------3--|---------14---13---13--|-9---------------------|
|----------2---------3--|---------12---11---10--|-9---------------------|
|----------5---------1--|-----------------------|-7---------------------|
|----------6------------|-----------------------|----------6--7--6--7--6|
|                                                                       |
|                                 P.M.........|            P.M.........||
|-----------------------|-----------------------|-----------------------|
|-----------------------|---------15---14---13--|-----------------------|
|----------9------------|---------14---13---13--|-9--------x--x--x--x--x|
|----------9---------8--|---------12---11---10--|-9--------x--x--x--x--x|
|----------7---------8--|-----------------------|-7--------x--x--x--x--x|
|--------------------6--|-----------------------|-----------------------|

|-----------------------------------|-----------------------------------|
|-----------------------------------|-----------------------------------|
|-----------------------------------|-------------------3---------------|
|-----------------------------------|-2-----------------3---------------|
|-----------------------------------|-5-----------------1---------------|
|---6---7---6---7---6---3---5---3---|-6---------------------------------|
|                                                                       |
|-----------------------------------|-----------------------------------|
|-----------------------------------|-----------------------------------|
|-----------------------------------|-------------------3---------------|
|-----------------------------------|-2-----------------3---------------|
|-----------------------------------|-5-----------------1---------------|
|---6---7---6---7---6---3---5---3---|-6---------------------------------|


          P.M.........|             P.M...............................|
|------------------------|-----------------------|----------------------|
|---------15---14---13---|-----------------------|----------------------|
|---------14---13---13---|-9---------------------|----------------------|
|---------12---11---10---|-9---------------------|----------------------|
|------------------------|-7---------------------|----------------------|
|------------------------|----------6--7--6--7--6|--7--6--7--6--3--5--3-|
|                                                                       |
|         P.M.........|             P.M...............................| |                
|------------------------|-----------------------|----------------------|
|---------15---14---13---|-----------------------|----------------------|
|---------14---13---13---|-9---------------------|----------------------|
|---------12---11---10---|-9---------------------|----------------------|
|------------------------|-7---------------------|----------------------|
|------------------------|----------6--7--6--7--6|--7--6--7--6--3--5--3-|

 Rhythm Fig 1:                                            End Rhythm Fig 1:
|-------------------------------------|-----------------------------------|
|-------------------------------------|-----------------------------------|
|----9--------------------------------|-----------------------------------|
|----9-----------------------8--------|----8------------------------------|
|----7-----------------------8--------|----8------------------------------|
|----------------------------6--------|----6------------------------------|

Guitar Solo 1: W/Rhy. Fig. 1
|----------------------------------------h-h--p-p-p-h-h-----h--h--p--p--p--|
|-------------------------------------h-7-8-10-9-8-7-9-10-11-12-13-12-11-10|
|-------------------------h--9--p--p-8-9-----------------------------------|
|----h--h--9--p--p-h--h--9-10-12-10-9--------------------------------------|
|---9-10-15-12-10-9-10-12--------------------------------------------------|
|--------------------------------------------------------------------------|

|--------------h--p--p--p--------------------------------------------------|
|---p--p--h--10-12-11-10-9-p-p-p------------------------------------------9|
|-12-11-10-12-------------9-8-7-6-p-p-p------------------------------7/9---|
|--------------------------------9-8-7-6-p---------------------7--9--------|
|---------------------------------------7-6-5~~~~-------7--10--------------|
|--------------------------------------------------------------------------|

                                                     \/+1 Vib. Bar
|-----12/16----16b+1------15b+1------12-----------12------------12---------|
|-12------------------------------------15b+1-----------------------14b+1--|
|--------------------------------------------------------------------------|
|--------------------------------------------------------------------------|
|--------------------------------------------------------------------------|
|--------------------------------------------------------------------------|

|------------------------------------------|------------------------------|
|------------------------------------------|------------------------------|
|--9---------------------------------------|--8-----------10--------------|
|--9---------------------------------------|--8-----------10--------------|
|--7---------------------------------------|--6-----------10--------------|
|------------------------------------------|------------------------------|
|                                                                         |
|-------p---------p--p------h------p--------------------------------------|
|-15--13-12--p--15-13-12--13-15--13-12--p--12--p---10--p--p---------------|
|----------14-12----------------------14-12--14-12---12-10-9--p--p--------|
|-----------------------------------------------------------12-10-9--p--p-|
|------------------------------------------------------------------12-10-8|
|-------------------------------------------------------------------------|


Slower Tempo

     Bass And Drums In
|------------------|---------------------|----------|---------------------|
|------------------|---------------------|----------|---------------------|
|----9-------------|------------11---12--|----------|------------11---12--|
|----9-------------|------------11---12--|----------|------------11---12--|
|----7-------------|-------------9---10--|----------|-------------9---10--|
|----0-------------|---------------------|----------|---------------------|
|                                                                         |
|                    Dive With Vibrato Bar                                |
|------------------|---------------------|----------|---------------------|
|------------------|---------------------|----------|---------------------|
|------------------|---------------------|----------|---------------------|
|---14-------------|-(14)\---------------|----------|---------------------|
|---14-------------|-(14)\---------------|----------|---------------------|
|---12-------------|-(12)\---------------|----------|---------------------|

   Percussive Rake
|----------------------------------|----------------------------------|
|----------------------------------|----------------------------------|
|*-x-x-x-x-x-x-x-x-x-x-x-x-x-x-x-x-|-x-x-x-x-x-x-x-x-x-x-x-x-11---12-*|
|*-x-x-x-x-x-x-x-x-x-x-x-x-x-x-x-x-|-x-x-x-x-x-x-x-x-x-x-x-x-11---12-*|
|--x-x-x-x-x-x-x-x-x-x-x-x-x-x-x-x-|-x-x-x-x-x-x-x-x-x-x-x-x--9---10--|
|--x-x-x-x-x-x-x-x-x-x-x-x-x-x-x-x-|-x-x-x-x-x-x-x-x-x-x-x-x----------|
|                                                                     |
|----------------------------------|----------------------------------|
|----------------------------------|----------------------------------|
|*---------------------------------|--------------------------11--12-*|
|*----------------p-------8---8/-9-|--------------------------11--12-*|
|----------5----10-7------9---9/10-|----------5----10\7--------9--10--|
|-7--5--7--------------------------|-7--5--7--------------------------|

Rhythm Fig. 2:
|----------------------------------|----------------------------------|
|----------------------------------|----------------------------------|
|-11---11--12--11---11-------------|-11---11--12--11---11-------------|
|-11---11--12--11---11-------------|-11---11--12--11---11-------------|
|--9----9--10---9----9-------------|--9----9--10---9----9-------------|
|----------------------------------|----------------------------------|
|                                                                     |
|----------------------------------|----------------------------------|
|----------------------------------|----------------------------------|
|----------------------------------|----------------------------------|
|----------------------------------|----------------------------------|
|-----------------------10-9-------|-----------------------10-9-------|
|---------------------------12-10-9|---------------------------12-10-9|

|----------------------------------|----------------------------------|
|----------------------------------|----------------------------------|
|-11---11--12--11---11-------------|-11---11--12--11---11-------------|
|-11---11--12--11---11-------------|-11---11--12--11---11-------------|
|--9----9--10---9----9-------------|--9----9--10---9----9-------------|
|----------------------------------|----------------------------------|
|                                                                     |
|----------------------------------|----------------------------------|
|----------------------------------|----------------------------------|
|----------------------------------|----------------------------------|
|----------------------------------|----------------------------------|
|-----------------------10-9-------|-----------------------10-9-------|
|---------------------------12-10-9|---------------------------12-10-9|

 S/S
|----------------------------------|----------------------------------|
|----------------------------------|----------------------------------|
|-11---11--12--11---11-------------|-11---11--12--11---11-------------|
|-11---11--12--11---11-------------|-11---11--12--11---11-------------|
|--9----9--10---9----9-------------|--9----9--10---9----9-------------|
|----------------------------------|----------------------------------|
|                                                                     |
|----------------------------------|----------------------------------|
|----------------------------------|----------------------------------|
|----------------------------------|----------------------------------|
|----------------------------------|----------------------------------|
|-----------------------10-9-------|-----------------------10-9-------|
|---------------------------12-10-9|---------------------------12-10-9|
  1.Down Fell The Stars,        As  The Splashed Into The Sea.
  2.Drinking, Dancing,               They Worship, And Toast.

|----------------------------------|----------------------------------|
|----------------------------------|----------------------------------|
|-11---11--12--11---11-------------|-11---11--12--11---11-------------|
|-11---11--12--11---11-------------|-11---11--12--11---11-------------|
|--9----9--10---9----9-------------|--9----9--10---9----9-------------|
|----------------------------------|----------------------------------|
|                                                                     |
|----------------------------------|----------------------------------|
|----------------------------------|----------------------------------|
|----------------------------------|----------------------------------|
|----------------------------------|----------------------------------|
|-----------------------10-9-------|-----------------------10-9-------|
|---------------------------12-10-9|---------------------------12-10-9|
  "Minomine Baphomet,"               Come Dance With Me.
(the) Devil, Who's Watching,         With Demons Remote. 

|----------------------------------|----------------------------------|
|----------------------------------|----------------------------------|
|-11---11--12--11---11-------------|-11---11--12--11---11-------------|
|-11---11--12--11---11-------------|-11---11--12--11---11-------------|
|--9----9--10---9----9-------------|--9----9--10---9----9-------------|
|----------------------------------|----------------------------------|
|                                                                     |
|----------------------------------|----------------------------------|
|----------------------------------|----------------------------------|
|----------------------------------|----------------------------------|
|----------------------------------|----------------------------------|
|-----------------------10-9-------|-----------------------10-9-------|
|---------------------------12-10-9|---------------------------12-10-9|
  Sacrifice The Virgins,             Spiritual Rites.
  Fire, Rising,                      Racing In Your Blood.
[ Tab from: http://www.guitartabs.cc/tabs/m/megadeth/bad_omen_tab.html ]
                                                      End Rhythm Fig 2:
|----------------------------------|----------------------------------|
|----------------------------------|----------------------------------|
|-11---11--12--11---11-------------|-11---11--12--11---11-------------|
|-11---11--12--11---11-------------|-11---11--12--11---11-------------|
|--9----9--10---9----9-------------|--9----9--10---9----9-------------|
|----------------------------------|----------------------------------|
|                                                                     |
|----------------------------------|----------------------------------|
|----------------------------------|----------------------------------|
|----------------------------------|----------------------------------|
|----------------------------------|----------------------------------|
|-----------------------10-9-------|-----------------------10-9-------|
|---------------------------12-10-9|---------------------------12-10-9|
  Their Master's Time Has Come,   The Moon Is Full Tonight.
  Possessed, Naive,                  His Service Is Done.

Endings 1:                                          D.S. S/S Al Coda <>  
|----------------------------------|----------------------------------|
|----------------------------------|----------------------------------|
|*-x-x-x-x-x-x-x-x-x-x-x-x-x-x-x-x-|-x-x-x-x-x-x-x-x-x-x-x-x-11---12-*|
|*-x-x-x-x-x-x-x-x-x-x-x-x-x-x-x-x-|-x-x-x-x-x-x-x-x-x-x-x-x-11---12-*|
|--x-x-x-x-x-x-x-x-x-x-x-x-x-x-x-x-|-x-x-x-x-x-x-x-x-x-x-x-x--9---10--|
|--x-x-x-x-x-x-x-x-x-x-x-x-x-x-x-x-|-x-x-x-x-x-x-x-x-x-x-x-x----------|
|                                                                     |
|----------------------------------|----------------------------------|
|----------------------------------|----------------------------------|
|*---------------------------------|--------------------------11--12-*|
|*----------------p-------8---8/-9-|--------------------------11--12-*|
|----------5----10-7------9---9/10-|----------5----10\7--------9--10--|
|-7--5--7--------------------------|-7--5--7--------------------------|

Ending 2:                                                    To Coda <>
|----------------------------------|----------------------------------|
|----------------------------------|----------------------------------|
|*-x-x-x-x-x-x-x-x-x-x-x-x-x-x-x-x-|-x-x-x-x-x-x-x-x-x-x-x-x-11---12-*|
|*-x-x-x-x-x-x-x-x-x-x-x-x-x-x-x-x-|-x-x-x-x-x-x-x-x-x-x-x-x-11---12-*|
|--x-x-x-x-x-x-x-x-x-x-x-x-x-x-x-x-|-x-x-x-x-x-x-x-x-x-x-x-x--9---10--|
|--x-x-x-x-x-x-x-x-x-x-x-x-x-x-x-x-|-x-x-x-x-x-x-x-x-x-x-x-x----------|
|                                                                     |
|----------------------------------|----------------------------------|
|----------------------------------|----------------------------------|
|*---------------------------------|--------------------------11--12-*|
|*----------------p-------8---8/-9-|--------------------------11--12-*|
|----------5----10-7------9---9/10-|----------5----10\7--------9--10--|
|-7--5--7--------------------------|-7--5--7--------------------------|

        ____6____   ____6____   ____6____
<> Coda|         | |         | |         |
|------------------------------------------|
|-3----4-4-4-4-4-4-5-5-5-5-5-5-6-6-6-6-6-6-|
|-2----3-3-3-3-3-3-4-4-4-4-4-4-5-5-5-5-5-5-|
|-0----1-1-1-1-1-1-2-2-2-2-2-2-3-3-3-3-3-3-|
|------------------------------------------|
|------------------------------------------|
|                                          |
|------------------------------------------|
|------------------------------------------|
|-11---------------------------------------|
|-11---------------------------------------|
|--9---------------------------------------|
|------------------------------------------|

   ____6____   ____6____   ____6____   _______6_______
  |         | |         | |         | |               |
|-------------------------------------------------------|
|-7-7-7-7-7-7-8-8-8-8-8-8-9-9-9-9-9-9-10-10-10-10-10-10-|
|-6-6-6-6-6-6-7-7-7-7-7-7-8-8-8-8-8-8--9--9--9--9--9--9-|
|-4-4-4-4-4-4-5-5-5-5-5-5-6-6-6-6-6-6--7--7--7--7--7--7-|
|-------------------------------------------------------|
|-------------------------------------------------------|
|                                                       |
|-------------------------------------------------------|
|-------------------------------------------------------|
|-11----------------------------------------------------|
|-11----------------------------------------------------|
|--9----------------------------------------------------|
|-------------------------------------------------------|

   _______6_______   _______6_______   _______6_______   _______6_______
  |               | |               | |               | |               |
|-------------------------------------------------------------------------|
|-11-11-11-11-11-11-12-12-12-12-12-12-13-13-13-13-13-13-14-14-14-14-14-14-|
|-10-10-10-10-10-10-11-11-11-11-11-11-12-12-12-12-12-12-13-13-13-13-13-13-|
|--8--8--8--8--8--8--9--9--9--9--9--9-10-10-10-10-10-10-11-11-11-11-11-11-|
|-------------------------------------------------------------------------|
|-------------------------------------------------------------------------|
|                                                                         |
|-------------------------------------------------------------------------|
|-------------------------------------------------------------------------|
|-11----------------------------------------------------------------------|
|-11----------------------------------------------------------------------|
|--9----------------------------------------------------------------------|
|-------------------------------------------------------------------------|

   _______6_______   _______6_______   _______6_______   _______6_______
  |               | |               | |               | |               |
|-------------------------------------------------------------------------|
|-15-15-15-15-15-15-16-16-16-16-16-16-17-17-17-17-17-17-18-18-18-18-18-18-|
|-14-14-14-14-14-14-15-15-15-15-15-15-16-16-16-16-16-16-17-17-17-17-17-17-|
|-12-12-12-12-12-12-13-13-13-13-13-13-14-14-14-14-14-14-15-15-15-15-15-15-|
|-------------------------------------------------------------------------|
|-------------------------------------------------------------------------|
|                                                                         |
|           p                   p                   p                     |
|------18-------15---------19-------16---------20-------17----------------|
|---------------------15------------------16------------------17----------|
|-------------------------------------------------------------------------|
|-------------------------------------------------------------------------|
|-------------------------------------------------------------------------|
|-------------------------------------------------------------------------|

|----------------------------------|-----------------------------------|
|----------------------------------|-----------------------------------|
|--9-x-x-x-x-x-x-x-x-x-x-x-x-x-x-9-|-----x-x-x-x-x-x-x-x-x-x-x-x-x-x-9-|
|--9-x-x-x-x-x-x-x-x-x-x-x-x-x-x-9-|-----x-x-x-x-x-x-x-x-x-x-x-x-x-x-9-|
|--7-x-x-x-x-x-x-x-x-x-x-x-x-x-x-7-|-----x-x-x-x-x-x-x-x-x-x-x-x-x-x-7-|
|----------------------------------|-----------------------------------|
|                                                                      |
|Guitar Solo 2:                                                        |                                                                      
|--24b+3---24b+3---24b+3---24b+3---|24-22-21-22-21-19-21-19-17-19-17-16|
|----------------------------------|-----------------------------------|
|----------------------------------|-----------------------------------|
|----------------------------------|-----------------------------------|
|----------------------------------|-----------------------------------|
|----------------------------------|-----------------------------------|

|----------------------------------|-----------------------------------|
|----------------------------------|-----------------------------------|
|----x-x-x-x-x-x-x-x-x-x-x-x-x-x-9-|-----x-x-x-x-x-x-x-x-x-x-x-x-x-x-x-|
|----x-x-x-x-x-x-x-x-x-x-x-x-x-x-9-|-----x-x-x-x-x-x-x-x-x-x-x-x-x-x-x-|
|----x-x-x-x-x-x-x-x-x-x-x-x-x-x-7-|-----x-x-x-x-x-x-x-x-x-x-x-x-x-x-x-|
|----------------------------------|-----------------------------------|
|                                                                      |
|17-16-14-16-14-12-14-12-10-12-10-9|10-9----9--------------------------|
|----------------------------------|-----12---12-10-12-10-9-10-9-------|
|----------------------------------|-----------------------------11-9\-|
|----------------------------------|-----------------------------------|
|----------------------------------|-----------------------------------|
|----------------------------------|-----------------------------------|

|----------------------------------|----------------------------------|
|----------------------------------|----------------------------------|
|*---------------------------------|--------------------------11--12-*|
|*----------------p-------8---8/-9-|--------------------------11--12-*|
|----------5----10-7------9---9/10-|----------5----10\7--------9--10--|
|-7--5--7--------------------------|-7--5--7--------------------------|
|                                                                     |
|----------------------------------|----------------------------------|
|----------------------------------|----------------------------------|
|*---------------------------------|--------------------------11--12-*|
|*---------------------------------|--------------------------11--12-*|
|----------------------------------|---------------------------9--10--|
|----------------------------------|----------------------------------|

|---------------------|---------------------|---------------------|
|---------------------|---------------------|---------------------|
|---------------------|--------------6---7--|---9-----------------|
|-----9---------------|--------------8---9--|---9-----------------|
|--7-----7-----9--10--|--7--9--7-----9--10--|---7-----------------|
|-----------7---------|-----------7---------|---------------------|
|                                                                 |
|---------------------|---------------------|---------------------|
|---------------------|---------------------|---------------------|
|---------------------|--------------6---7--|---9-----------------|
|-----9---------------|--------------8---9--|---9-----------------|
|--7-----7-----9--10--|--7--9--7-----9--10--|---7-----------------|
|-----------7---------|-----------7---------|---------------------|

Rhythm Fig. 3:
|----------------------------------|-----------------------------------|
|----------------------------------|-----------------------------------|
|--9---x-x-x-x-x-x-x---x-x-x-x-x---|--9---x-x-x-x-x-x-x---x-x-x-x-x-x--|
|--9---x-x-x-x-x-x-x---x-x-x-x-x---|--9---x-x-x-x-x-x-x---x-x-x-x-x-x--|
|--7---x-x-x-x-x-x-x---x-x-x-x-x---|--9---x-x-x-x-x-x-x---x-x-x-x-x-x--|
|----------------------------------|-----------------------------------|

                                                      End Rhythm Fig. 3:
|----------------------------------|-----------------------------------|
|----------------------------------|-----------------------------------|
|--9---x-x-x-x-x-x-x---x-x-x-x-x---|-----------------------------------|
|--9---x-x-x-x-x-x-x---x-x-x-x-x---|-12-----9-----8-----12-----9-----8-|
|--7---x-x-x-x-x-x-x---x-x-x-x-x---|-12-----9-----8-----12-----9-----8-|
|----------------------------------|-10-----7-----6-----10-----7-----6-|

Guitar Solo 3: W/Rhy. Fig. 3 (4 Times)                      Dive With Vib. Bar
|-----24b+3------24b+3------24b+3---24b+3---24b+3---24b+3---24b+3-d-3----|
|------------------------------------------------------------------------|
|------------------------------------------------------------------------|
|------------------------------------------------------------------------|
|------------------------------------------------------------------------|
|------------------------------------------------------------------------|

   p    p    p    p    p    p    p    p    p    p    p    p    p    p    p    p
|23-2024-2023-2024-2023-2024-2023-2024-2023-2024-2023-2024-2023-2024-2023-2024-20|
|--------------------------------------------------------------------------------|
|--------------------------------------------------------------------------------|
|--------------------------------------------------------------------------------|
|--------------------------------------------------------------------------------|
|--------------------------------------------------------------------------------|

   p    p    p    p    p    p    p    p    p    p    p    p    p    p    p    p
|22-1924-1922-1924-1921-1823-1820-1722-1719-1621-1619-1621-1618-1520-1518-1520-15|
|--------------------------------------------------------------------------------|
|--------------------------------------------------------------------------------|
|--------------------------------------------------------------------------------|
|--------------------------------------------------------------------------------|
|--------------------------------------------------------------------------------|

   p    p    p    p    p    p    p    p    p    p    p    p    p    p    p    p
|17-1419-1417-1419-1416-1318-1315-1217-1214-1116-1114-1116-1113-1015-1013-1015-10|
|--------------------------------------------------------------------------------|
|--------------------------------------------------------------------------------|
|--------------------------------------------------------------------------------|
|--------------------------------------------------------------------------------|
|--------------------------------------------------------------------------------|

   p    p    p    p    p    p    p    p   p    p   p    p   p    p   p    p
|12-9-14-9-12-9-14-9-11-8-13-8-10-7-12-7-9-6-11-6-9-6-11-6-8-5-10-5-8-5-10-5|
|---------------------------------------------------------------------------|
|---------------------------------------------------------------------------|
|---------------------------------------------------------------------------|
|---------------------------------------------------------------------------|
|---------------------------------------------------------------------------|

  p   p   p   p   p   p   p   p   p   p   p   p   p   p   p   p
|7-4-9-4-7-4-9-4-6-3-8-3-5-2-7-2-4-1-6-1-4-1-6-1-3-0-5-0-3-0-5-0|
|---------------------------------------------------------------|
|---------------------------------------------------------------|
|---------------------------------------------------------------|
|---------------------------------------------------------------|
|---------------------------------------------------------------|

|------------------------|---------------------------|--------------------|
|-------15--------15-----|--15----15----15----15-----|-12-----12-----12---|
|-----14b+2-----14b+2----|14b+2-14b+2-14b+2-14b+2----|-12-----12-----12---|
|------------------------|---------------------------|---14-----14-----14-|
|------------------------|---------------------------|--------------------|
|------------------------|---------------------------|--------------------|

|--------------12-14-12-|-15-14-12---------------15-|-15-14-12-------------|
|-----12-------12-14-12-|-15-14-12---------------15-|-15-14-12-------------|
|-----12----------------|-----------15-13--15-13----|------------15-12-15--|
|-------14--------------|-----------15-13--15-13----|------------15-12-15--|
|-----------------------|---------------------------|----------------------|
|-----------------------|---------------------------|----------------------|

|-----15---14---12-----------------|------------------------------|
|-----15---14---12-----------------|------------------------------|
|--------------------15-12---15-15-|--14---12b+1-----12-----------|
|--------------------15-12---15-15-|------------14--------14------|
|----------------------------------|---------------------------14-|
|----------------------------------|------------------------------|

|----------------------------------|-----------------------------------|
|----------------------------------|-----------------------------------|
|*-9---x-x-x-x-x-x-x---x-x-x-x-x---|--9---x-x-x-x-x-x-x---x-x-x-x-x-x--|
|*-9---x-x-x-x-x-x-x---x-x-x-x-x---|--9---x-x-x-x-x-x-x---x-x-x-x-x-x--|
|--7---x-x-x-x-x-x-x---x-x-x-x-x---|--9---x-x-x-x-x-x-x---x-x-x-x-x-x--|
|----------------------------------|-----------------------------------|
|                                                                      |
|----------------------------------|-----------------------------------|
|----------------------------------|-----------------------------------|
|--9---x-x-x-x-x-x-x---x-x-x-x-x---|--9---x-x-x-x-x-x-x---x-x-x-x-x-x--|
|--9---x-x-x-x-x-x-x---x-x-x-x-x---|--9---x-x-x-x-x-x-x---x-x-x-x-x-x--|
|--7---x-x-x-x-x-x-x---x-x-x-x-x---|--9---x-x-x-x-x-x-x---x-x-x-x-x-x--|
|----------------------------------|-----------------------------------|
  1.Sinister's The Word,         As The Demons Take Their Fill.     An
  2.The Ceremony,                Is Sure To Be Cursed.             They 

|----------------------------------|-----------------------------------|
|----------------------------------|-----------------------------------|
|--9---x-x-x-x-x-x-x---x-x-x-x-x---|-----------------------------------|
|--9---x-x-x-x-x-x-x---x-x-x-x-x---|-12-----9-----8-----12-----9-----8-|
|--7---x-x-x-x-x-x-x---x-x-x-x-x---|-12-----9-----8-----12-----9-----8-|
|----------------------------------|-10-----7-----6-----10-----7-----6-| 
|                                                                      |
|----------------------------------|-----------------------------------|
|----------------------------------|-----------------------------------|
|--9---x-x-x-x-x-x-x---x-x-x-x-x---|-----------------------------------|
|--9---x-x-x-x-x-x-x---x-x-x-x-x---|-12-----9-----8-----12-----9-----8-|
|--7---x-x-x-x-x-x-x---x-x-x-x-x---|-12-----9-----8-----12-----9-----8-|
|----------------------------------|-10-----7-----6-----10-----7-----6-|
  Orgy's Taking Place,          Human Blood Will Spill.

  Wait For His Blessings,       But, Down Comes The Worst.

|----------------------------------|-----------------------------------|
|----------------------------------|-----------------------------------|
|--9---x-x-x-x-x-x-x---x-x-x-x-x---|--9---x-x-x-x-x-x-x---x-x-x-x-x-x--|
|--9---x-x-x-x-x-x-x---x-x-x-x-x---|--9---x-x-x-x-x-x-x---x-x-x-x-x-x--|
|--7---x-x-x-x-x-x-x---x-x-x-x-x---|--9---x-x-x-x-x-x-x---x-x-x-x-x-x--|
|----------------------------------|-----------------------------------|
|                                                                      |
|----------------------------------|-----------------------------------|
|----------------------------------|-----------------------------------|
|--9---x-x-x-x-x-x-x---x-x-x-x-x---|--9---x-x-x-x-x-x-x---x-x-x-x-x-x--|
|--9---x-x-x-x-x-x-x---x-x-x-x-x---|--9---x-x-x-x-x-x-x---x-x-x-x-x-x--|
|--7---x-x-x-x-x-x-x---x-x-x-x-x---|--9---x-x-x-x-x-x-x---x-x-x-x-x-x--|
|----------------------------------|-----------------------------------|
  An Act Of Worship,             As They Conceive The Ghouls.
  Their Bodies, Soul-less,       A Corpse From The Grave.

|----------------------------------|-----------------------------------|
|----------------------------------|-----------------------------------|
|--9---x-x-x-x-x-x-x---x-x-x-x-x---|-----------------------------------|
|--9---x-x-x-x-x-x-x---x-x-x-x-x---|-12-----9-----8-----12-----9-----8-|
|--7---x-x-x-x-x-x-x---x-x-x-x-x---|-12-----9-----8-----12-----9-----8-|
|----------------------------------|-10-----7-----6-----10-----7-----6-| 
|                                                                      |
|----------------------------------|-----------------------------------|
|----------------------------------|-----------------------------------|
|--9---x-x-x-x-x-x-x---x-x-x-x-x---|----------------------------------*|
|--9---x-x-x-x-x-x-x---x-x-x-x-x---|-12-----9-----8-----12-----9-----8*|
|--7---x-x-x-x-x-x-x---x-x-x-x-x---|-12-----9-----8-----12-----9-----8-|
|----------------------------------|-10-----7-----6-----10-----7-----6-|
  Satan Has Their Souls,       They Sing Pagan Tunes.
  Their Minds Are Help-less,   And No One Can Save.

Rhythm Fig. 4
|----------------------------------|-----------------------------------|
|----------------------------------|-----------------------------------|
|*-9---x-x-x-x-x-x-x---x-x-x-x-x---|--9---x-x-x-x-x-x-x---x-x-x-x-x-x--|
|*-9---x-x-x-x-x-x-x---x-x-x-x-x---|--9---x-x-x-x-x-x-x---x-x-x-x-x-x--|
|--7---x-x-x-x-x-x-x---x-x-x-x-x---|--9---x-x-x-x-x-x-x---x-x-x-x-x-x--|
|----------------------------------|-----------------------------------|
|                                                                      |
|----------------------------------|-----------------------------------|
|----------------------------------|-----------------------------------|
|----------------------------------|-----------------------------------|
|----------------------------------|-----------------------------------|
|---------7-5------------7-5-------|----------7-5------------7-5-------|
|-------------7-5------------7-5---|--------------7-5------------7-5---|

|----------------------------------|-----------------------------------|
|----------------------------------|-----------------------------------|
|--9---x-x-x-x-x-x-x---x-x-x-x-x---|-----------------------------------|
|--9---x-x-x-x-x-x-x---x-x-x-x-x---|-12-----9-----8-----12-----9-----8-|
|--7---x-x-x-x-x-x-x---x-x-x-x-x---|-12-----9-----8-----12-----9-----8-|
|----------------------------------|-10-----7-----6-----10-----7-----6-|
|                                                                      |
|                                                     End Rhythm Fig. 4: Play 4 Times
|----------------------------------|-----------------------------------|
|----------------------------------|-----------------------------------|
|----------------------------------|----------------------------------*|
|----------------------------------|-12-----9-----8-----12-----9-----8*|
|---------7-5------------7-5-------|-12-----9-----8-----12-----9-----8-|
|-------------7-5------------7-5---|-10-----7-----6-----10-----7-----6-|
                                    No One Can Save.

Outro
|---------------|-----------------------------------|----------------|
|---------------|-----------------------------------|----------------|
|---------------|-----------------------------------|--9-------------|
|--7------------|-12-----9-----8-----12-----9-----8-|--9-------------|
|--7------------|-12-----9-----8-----12-----9-----8-|--7-------------|
|--5------------|-10-----7-----6-----10-----7-----6-|----------------|
|                                                                    |
|---------------|-----------------------------------|----------------|
|---------------|-----------------------------------|----------------|
|---------------|-----------------------------------|--9-------------|
|--7------------|-12-----9-----8-----12-----9-----8-|--9-------------|
|--7------------|-12-----9-----8-----12-----9-----8-|--7-------------|
|--5------------|-10-----7-----6-----10-----7-----6-|----------------|

b= Bend pb= Pre Bend cb= Compound Bend ub= Unison Bend r= release 
+1= 1 Fret +2= 2 Frets / & \= Slide p= Pull-Off h= Hammer-On d= Dive With 
Vibrato Bar \/= Dip With Vibrato Bar
D.S. S/S Al Coda <>= Go Back To (S/S) Sign And Play Until You Reach 
                     (To Coda <>) Sign And Go To (<> Coda) Sign.
Comments