Megadeth - Bad Omen Chords & Tabs

 

Bad Omen Chords & Tabs

Megadeth Chords & Tabs

Version: 1 Type: Bass Tab 0 ratings
1 star 2 stars 3 stars 4 stars 5 stars
comments

Bad Omen Bass Tab

Band- Megadeth
Song- Bad Omen

G--------------|
D-----Rest-----|
A--------------|
E--------------|

Fig 1x2 (Intro)
G--------------------------------------------|
D--------------------------------------------|
A--7--------R----7---------------------------|
E--0---6---xxx---0---6-7-6-7-6-7-6-3-5-3-----|

Fig 2x2
G----------------------|
D----------------------|
A----------------------|
E--0---6--(6)\---0--6--|

(repeat Fig 1x2)
(repeat Fig 2x1)

Fig 3x1
G--------------------|
D--------------------|
A--------------------|
E--0---6----0--6--3--|

Fig 4x4 (Fast and up-beat)
G----------------------------------------------------------|
D--------------5----------------------------5--------------|
A----------5-----7----------------------5-----7------------|
E--0-7p5-0---7-----3-5-5h6-5h6--0-7p5-0---7-----0-7-0-3-5--|

Fig 5x12 (Verse)
G------------------------------|
D------------------------------|
A----------------------7p5-----|
E--2--0-0-2-3p2--0-0-------7\--|

(Repeat Fig 4x2)
(Repeat Fig 5x12)
(Repeat Fig 4x2)
[ Tab from: http://www.guitartabs.cc/tabs/m/megadeth/bad_omen_btab.html ]
Fig 6
G---------------------------------------------------------------------------------------|
D---------------------------------------------------------------------------------------|
A---------------------------------------------------------------------------------------|
E--3-3-3-3-3-3-3-3-3-3-3-3-3-3-3-3-3-3-3-3-3-3-3-3-3-3-3-3-3-0-0-0-0-0-0-0-0-0-0-0-0-0--|

Fig 6 continue
G---------------------------------------|
D---------------------------------------|
A---------------------------------------|
E--0-0-0-0-0-0-0-0-0-0-0-0-0-0-0-0-0-0--|

(Repeat Fig 4x2)

Fig 7
("Bloody Blasphemy!")
G-----------------------------|
D--2---------------------0-2--|
A----1-------2-------0-2------|
E------0-2-3---0-2-3----------|

(The whole band rests now for about 2 seconds)

Fig 8
G--------------------------------------------------------------------|
D--------------------------------------------------------------------|
A--------------------------------------------------5--------5--------|
E--0-0-0-0-0-0-0-0-0-0-0-0-0-0-0-0-0-0-0-0-0-0-0-0----7--5-----7--5--|
Comments