Megadeth - Back In The Day Chords & Tabs

 

Back In The Day Chords & Tabs

Megadeth Chords & Tabs

Version: 1 Type: Tab 0 ratings
1 star 2 stars 3 stars 4 stars 5 stars
comments

Back In The Day Tab

Back in the Day 
Megadeth
2004 ԤThe System has FailedԬ


Intro, Verse (type 1)
e|------------------------------------|
b|------------------------------------|
g|------------------------------------|
D|--0-10-0-0-8-0-0-7-0-0-8-0-0-7-0-7--|
A|------------------------------------|
E|------------------------------------|

Chorus (type 1)
            PM------------|
e|----------------------------|
b|----------------------------|
g|-7---2--3-------------------|
D|-7---2--3-------------------|
A|-5---0--1-1-1-1-1-1-1-1-1---|
E|----------------------------|


Solo ‘V Lead, Rhythm

Bridge

Solo 2 ‘V Lead, Rhythm
[ Tab from: http://www.guitartabs.cc/tabs/m/megadeth/back_in_the_day_tab.html ]
                                          ____  ____
Verse (type 2)                           |1.   |2.
e|---------------------------------------|-----|-----|
b|---------------------------------------|-----|-----|
g|---------------------------------------|-----|-----|
D|---------------------------------------|-----|-----|
A|-3--3-3-3-3--3-3-3-3--3-3-3-3--3-3-3-3-|-5-6-|-6-5-|
E|---------------------------------------|-----|-----|

Chorus (type 2)
e|--------------------------------------------------------------------„³
b|--------------------------------------------------------------------„³
g|--------------------------------------------------------------------„³
D|-5-5-5-5-5-5-5-5--4-4-4-4-4-4-4-4--0-0-0-0-0-0-0-0--3-3-3-3-3-3-3-3-„³
A|--------------------------------------------------------------------„³
E|--------------------------------------------------------------------„³

„²-----------------|
„²-----------------|
„²-----------------|
„²-----------------|
„²-3-3-3-3-3-3-3-3-|
„²-----------------|

im still working on solos
Comments