Megadeth - Architecture Of Aggression Chords & Tabs

 

Architecture Of Aggression Chords & Tabs

Megadeth Chords & Tabs

Version: 3 Type: Tab 0 ratings
1 star 2 stars 3 stars 4 stars 5 stars
comments

Architecture Of Aggression Tab

Architecture Of Aggression
Transcribed by Christopher Heer
Standard Tuning

Intro
-----------------------------------------------------------------
-----------------------------------------------------------------
-----------------------------------------------------------------
-----------------------------------------------------------------
--------------7-8-7-------4-5-4---------------7-8-7-----0-22-----
0-2-0-3-0-2-0-5-6-5-0-2-0-2-3-2-0-2-0-3-0-2-0-5-6-5-0-2-----5220-

Verse
-----------------------------------------------------------------
-----------------------------------------------------------------
-----------------------------------------------------------------
-----------------------------------------------------------------
-------------7-8-7-------4-5-4---------------7-8-7-----0-22-----
-2-0-3-0-2-0-5-6-5-0-2-0-2-3-2-0-2-0-3-0-2-0-5-6-5-0-2-----5220-
[ Tab from: http://www.guitartabs.cc/tabs/m/megadeth/architecture_of_aggression_tab_ver_3.html ]
Chorus
-----------------------------------------------------------------
-----------------------------------------------------------------
-----4-4-----4-4-----4-4-----4-4-----4-4-----4-4-----4-4---------
-------------------------0h2-------------------------------2-4---
-0h2-----2h3-----3h5-------------0h2-----2h3-----3h5-----2-----3-
-----------------------------------------------------------------

-----------------------------------------------------------------
-----------------------------------------------------------------
-----------------------------------------------------------------
-----4-4-----4-4-----4-------4-----------------------------------
-2h4-----4h5-----5h7---7-4h5---5---------------------------------
-----------------------------------------------------------------

Interlude
-----------------------------------------------------------------
--------------------------------------------8-7-6\5--------------
--------------------------------------------7-6-5\4--------------
--------------------------------------------5-4-3\2--------------
-----------------5-4-3-------------------------------------------
-2-3-2-0-5-7-5---------5-2-0-2-3-2-0-5-7-5----------2-0----------

Solo Rhythm
-----------------------------------------------------------------
-----------------------------------------------------------------
-----------------------------------------------------------------
-----------------------------------------------------------------
-2/4-x-###/5-x-x-5/7-x-###/5-x-x-2/4-x-x-4/5-x-x-5/7-x-x---5---5-
-0/2-x-x-2/3-x-x-3/5-x-x-2/3-x-x-0/2-x-x-2/3-x-x-3/5-x-x-2---2---
Comments