Megadeth - Angry Again Chords & Tabs

 

Angry Again Chords & Tabs

Megadeth Chords & Tabs

Version: 6 Type: Tab

Angry Again Tab

There is bad timming in the song and solo but make do and try your best at timming.

Megadeth Rulez

Tunning Is: EbAbDbGbBbEb


|----------------------------------------
|----------------------------------------
|-------------------3-4-----7-8----------
|--0-1------4-5---------5-------9--------
|------2--------6---------6-------10-----
|---------3-------7----------------------

Fig 2.
|----------------------------------|-----------------------------------|
|----------------------------------|-----------------------------------|
|----------------------------------|-----------------------------------|
|-----2------2---------------------|-----2------2----------------------|
|---2--(2)-3---3-2-2-----2---------|---2--(2)-3---3-2-2-----2-4-3-2----|
|-0----------------0-0-0-0-0-0-0-0-|-0----------------0-0-0-0-5-4-3----|

							End Fig 2.
|----------------------------------|-----------------------------|
|----------------------------------|-----------------------------|
|----------------------------------|---------------7-----5-------|
|-----2------2---------------------|---------------7-----5-------|
|---2--(2)-3---3-2-2-----2-4-3-2---|-4-3-2---4-3---5-----3-------|
|------------------0-0-0-0-5-4-3---|-5-4-3---5-4---5-0-0-3-3b-0--|

Chorus:
|------------------------------------|-------------------------------------|
|------------------------------------|-------------------------------------|
|------------------------------------|-------------------------------------|
|-----7/9---12\7/9-------5---7-----9-|---7/9---12----5-------7---------9---|
|-----5/7---10\5/7-------3---5-----7-|---5/7---10----3-------5---------7---|
|-0-0-----0---------0--0---0---0-0---|-0-----0----0------0-0-----0-0-0-----|

|------------------------------------|-------------------------------------|
|------------------------------------|-------------------------------------|
|------------------------------------|-------------------------------------|
|---7/9---12\7/9-------5---7-----9---|---7/9---12---5-----4-----2-----4----|
|---5/7---10\5/7-------3---5-----7---|---5/7---10---3-----2-----0-----2-5-2|
|-0-----0---------0--0---0---0-0-----|-0-----0----0---0-0---0-0---0-0---3-0|

Interlude:
Fig 5.
|------------------------------------|--------------------------------------|
|------------------------------------|-------------------------------------|
|------------------------------------|-------------------------------------|
|------------------------------------|-------------------------------------|
|---2-2-2---2-2-2---3-3-3---3-3-3----|---4-4-4---4-4-4---5-5-5---5-5-5-----|
|---0-0-0---0-0-0---1-1-1---1-1-1----|---2-2-2---2-2-2---3-3-3---3-3-3-----|
 Palm mute----->
							      End fig 5.
|-----------------------------------|-------------------------------------|
|-----------------------------------|-------------------------------------|
|-----------------------------------|-------------------7-------5---------|
|-----------------------------------|-------------------7-------5---------|
|---6-6-6---6-6-6---7-7-7---7-7-7---|----8-8-8---8-8-8--5-------3---------|
|---4-4-4---4-4-4---5-5-5---5-5-5---|----6-6-6---6-6-6--5--0-0--3-3b-0----|
[ Tab from: http://www.guitartabs.cc/tabs/m/megadeth/angry_again_tab_ver_6.html ]
SOLO:
Lead gtr.
|---------------------------------|----------------------------------|
|---------------------------------|--------12-10---------------------|
|-----4-/-9-----------------------|-4-/-9-----------12-11------------|
|------------9b10-------r9--------|------------------------12--------|
|---------------------------------|----------------------------------|
|---------------------------------|----------------------------------|
|				  |				     |
|---------------------------------|----------------------------------|
|---------------------------------|----------------------------------|
|-9-------------7-------5---------|----------------------------------|
|-9-------------7-------5---------|----------------------------------|
|-7-------------5-------3---------|----------------------------------|
|-----0-0-0-0-0-----0-0-----3b-0--|----------------------------------|


|--------------------------0h8h10-0h7h8-0h8h10-0h10h12-0h12h14----------|
|-------0h5h7-0h7h8-0h8h10----------------------------------------------|
|-0h7h9-----------------------------------------------------------------|
|------------------------------------------( something similar to this )|
|-----------------------------------------------------------------------|
|-----------------------------------------------------------------------|


|----12-15-14p12------------------|
|---12----------------------------|
|--12-----------------------------|
|-14------------------------------|
|---------------------------------|
|---------------------------------|
  sweep        Not sure past this bit.


|---------------------------------|----------------------------------|
|---------------------------------|----------------------------------|
|---------------------------------|----------------------------------|
|-7b9-(9)-(9)-(9)//---------------|-----9-----9-----5-6-----8-9------|
|---------------------------------|-7-10--7-10-10-7-----8-7-----11-10|
|---------------------------------|----------------------------------|
|                                 |                                  |
|---------------------------------|----------------------------------|
|---------------------------------|----------------------------------|
|---------------------------------|----------------------------------|
|-----2-----2-----0-1-------------|-----2-----2-----0-1-----4-5------|
|---2---2-3---3-2-----2-----------|---2---2-3---3-2-----2-------6----|
|-0---------------------3-2-1-2-3-|-0---------------------3-------7--|



|---------------------------------|----------17b19-17b19-17-15--22b24-22b24|
|---------------------------------|-----------15--------------17-----------|
|-12/14------14/16----------------|14-14/16-16-----------------------------|
|----------------------(12)r11b12-|----------------------------------------|
|-10/12------12/14----------------|----------------------------------------|
|---------------------------------|----------------------------------------|
|                                 |                                   
|---------------------------------|----------------------------------|
|---------------------------------|----------------------------------|
|---------------------------------|----------------------------------|
|-----4------4-----2-3------------|-----4------4-----2-3-------------|
|---4---4--5---5-4-----4----------|---4---4--5---5-4-----4-----------|
|-2----------------------5-4-3-4-5|-2----------------------5-4-3-2-1-|


OUTRO: Fig 6.
|----------------------------------|--------|
|----------------------------------|--------|
|-----------------3-4--------------|--------|
|-0-1-----4-5---------5------------|-2------|
|-----2-------6---------6----------|-2------|
|-------3-------7----------2-1-2-3-|-0------|