Megadeth - Angry Again Chords & Tabs

 

Angry Again Chords & Tabs

Megadeth Chords & Tabs

Version: 2 Type: Tab 0 ratings
1 star 2 stars 3 stars 4 stars 5 stars
comments

Angry Again Tab

   

 
                                   MEGADETH:
                                  Angry Again

*       Palm mute
h       Hammer on
p       Pull off
b       Bend
hb      Hold bend
pb      Pre bend 
rb      Release bend
/       Slide up
\       Slide down

Tabbed by Andrew 

Well here ya go Megadeth fans this is a really cool song,and one of my Favorite
Megadeth tunes.I've seen a few versions of this tabbed on the net
but this one I'VE done Is the best TRUST me.It's totally correct.
(if I've not made any mistakes typing it up)


Enjoy :)


 Riff 1.Intro:				

 Gtr:2 Marty Friedman
|-----------------|-------------------------|-----------------|-----------------|
|-3-4-----7-8-----|-11-12-------15-16-------|-----------------|-----------------|
|-----4-------8---|-------12----------16----|-----------------|-----------------|
|-------5-------9-|----------13----------17-|-----2-----2-----|-----------------|
|-----------------|-------------------------|---2-----3---3-2-|-2-----2---------|
|-----------------|-------------------------|-0-----0---------|-0-0-0-0-0-0-0-0-|
|                                             *     *             * *   * * * * |
|                                                                               |
| Gtr:1 Dave Mustaine                                                           |
|-----------------|-------------------------|-----------------|-----------------|
|-----------------|-------------------------|-----------------|-----------------|
|-----------------|-------------------------|-----------------|-----------------|
|-0-1-----4-5-----|--6--9-------12-13-------|-----2-----2-----|-----------------|
|-----2-------6---|-------10----------14----|---2-----3---3-2-|-2-----2---------|
|-------3-------7-|----------11----------15-|-0-----0---------|-0-0-0-0-0-0-0-0-|
                                              *     *             * *   * * * *


Riff 2 both Gtrs.
|---------------------------|---------------------------|-------------------------|
|---------------------------|---------------------------|-x-----------------------|
|---------------------------|---------------------------|-x-----------------------|
|-------2--------2----------|---------------------------|-x-----2--------2--------|
|----2--------3------3---2--|-2--------2-----2/4--3--2--|----2--------3-----3--2--|
|-0--------0----------------|-0--0--0--0--0--3/5--4--3--|----------0--------------|
 	                           *  *     *                        *


|---------------------------|-----------------------|---------------------------||
|---------------------------|-----------------------|---------------------------||
|---------------------------|-----------------------|----------2----------------||
|---------------------------|--------------------7--|---------------------------||
|-2--------2-----2/4--3--2--|-2/4--3--2--2/4--2--5--|----------3-------------2--||
|-0--0--0--0--0--3/5--4--3--|-3/5--4--3--3/5--3-----|----0--0-------3(sb)----0--||
     *  *     *                                          *  *

Verese 1,2&3
||-------------------------|-------------------------|------------------------|
||-------------------------|-------------------------|------------------------|
||-------------------------|-------------------------|------------------------|
||-----2--------2----------|-------------------------|------2-------2---------|
||--2--------3------3---2--|-2--------2--------------|----2-------3-----3--2--|
||--------0----------------|-0--0--0--0--0--0--0--0--|-0-------0--------------|
 	    *                     *  *     *  *  *  *    *       *
                                                      
                                                      [ 1st Ending
|---------------------------|-------------------------|-------------------------|
|---------------------------|-x-----------------------|-------------------------|
|---------------------------|-x-----------------------|-------------------------|
|---------------------------|-x-----2--------2--------|-------------------------|
|-2--------2-----2/4--3--2--|----2--------3-----3--2--|-2--------2--------------|
|-0--0--0--0--0--3/5--4--3--|----------0--------------|-0--0--0--0--0--0--0--0--|
     *  *     *                        *                   *  *     *  *  *  *
                                                      ]
|--------------------------|--------------------------||
|--------------------------|--------------------------||
|--------------------------|---------2----------------||
|-------2--------2------7--|--------------------------||
|----2--------3-----0---5--|---------3-------------2--||
|-0--------0---------------|---0--0-------3(sb)----0--||
  *        *                   *  *                        

[ 2 Ending                                                                      ]
|---------------------------|-----------------------|---------------------------|
|---------------------------|-----------------------|---------------------------|
|---------------------------|-----------------------|----------2----------------|
|---------------------------|--------------------7--|---------------------------|
|-2--------2-----2/4--3--2--|-2/4--3--2--2/4--2--5--|----------3-------------2--|
|-0--0--0--0--0--3/5--4--3--|-3/5--4--3--3/5--3-----|----0--0-------3(sb)----0--|
     *  *     *                                          *  *



|-----------------|-------------------------|
|-3-4-----7-8-----|-11-12-------15-16-------|
|-----4-------8---|-------12----------16----|
|-------5-------9-|----------13----------17-|
|-----------------|-------------------------|
|-----------------|-------------------------|
|                                           |
|                                           |
|                                           |
|-----------------|-------------------------|
|-----------------|-------------------------|
|-----------------|-------------------------|
|-0-1-----4-5-----|--6--9-------12-13-------|
|-----2-------6---|-------10----------14----|
|-------3-------7-|----------11----------15-|
    

                                                       
Chorus 1 and 2:Play chorus 3 after last verse
|-----------------------------|-----------------------|-----------------------------|
|-----------------------------|-----------------------|-----------------------------|
|-----------------------------|-----------------------|-----------------------------|
|-5------4---5-----9---7---5--|--------2-----4--4-----|-5------4---5-----9---7---2--|
|-7------5---7-----10--9---7--|--------3-----5--5-----|-7------5---7-----10--9---3--|
|-----0---------0-------------|--0--0-----0--------0--|-----0---------0-------------|
|     *        *                 *  *     *        *        *         *
|
|
|-----------------------------|-----------------------|-----------------------------|
|-----------------------------|-----------------------|-----------------------------|
|-----------------------------|-----------------------|-----------------------------|
|-9------7---9-----12--10--9--|--------5-----7--7-----|-9------7---9-----12--10--9--|
|-10-----9---10----14--12--10-|--------7-----9--9-----|-10-----9---10----14--12--10-|
|-----0---------0-------------|--0--0-----0--------0--|----0-----------0------------|
      *         *                *  *     *        *       *           *
 


|----------------------------|-----------------------------|-----------------------|
|----------------------------|-----------------------------|-----------------------|
|----------------------------|-----------------------------|-----------------------|
|-(2)--------4---------------|-5------4---5-----9---7---5--|--------2-----4--4-----|
|-(3)--------5---------------|-7------5---7-----10--9---7--|--------3-----5--5-----|
|------0--0---------0--0--0--|-----0---------0-------------|--0--0-----0--------0--|
|      *  *         *  *  *        *         *                *  *     *        *
|
|
|----------------------------|-----------------------------|-----------------------|
|----------------------------|-----------------------------|-----------------------|
|----------------------------|-----------------------------|-----------------------|
|-(2)--------7---------------|-5------7---9-----12--10--9--|--------5-----7--7-----|
|-(3)--------9---------------|-7------9---10----14--12--10-|--------7-----9--9-----|
|------0--0---------0--0--0--|-----0---------0-------------|--0--0-----0--------0--|
       *  *         *  *  *        *         *                *  *     *        *
   


|------------------------------|-------------------------|-------------------------||
|------------------------------|-------------------------|-------------------------||
|------------------------------|-------------------------|-------------------------||
|-5------4---5------9---7---2--|-(2)--------5---------2--|--------0----------------||
|-7------5---7------10--9---3--|-(3)--------2---------0--|--------2----------------||
|-----0----------0-------------|------0--0------0--0-----|-0--0--------3(hb)----0--||
|     *         *                     *  *      *  *       *  *
|
|
|------------------------------|-------------------------|-------------------------||
|------------------------------|-------------------------|-------------------------||
|-------------------7---5---4--|-(4)--------4---------4--|--------4----------------||
|-9------7---9------9---7---5--|-(5)--------5---------2--|--------5----------------||
|-10-----9---10----------------|-------------------------|-------------------------||
|-----0----------0-------------|------0--0------0--0-----|-0--0--------3(hb)----0--||
      *          *                    *  *      *  *       *   *           
 

Bridge
Both Gtrs:[Palm mute all E string notes]
|---------------------------------|---------------------------------|
|---------------------------------|---------------------------------|
|---------------------------------|---------------------------------|
|---------------------------------|---------------------------------|
|---------------------------------|---------------------------------|
|--0-0-0---0-0-0---1-1-1---1-1-1--|--2-2-2---2-2-2---3-3-3---3-3-3--|
   *
							      End fig 5.
|---------------------------------|----------------------------------------||
|---------------------------------|----------------------------------------||
|---------------------------------|----------------------------2-----------||
|---------------------------------|------------------7------------------9--||
|---------------------------------|------------------5---------3--------7--||
|--4-4-4---4-4-4---5-5-5---5-5-5--|--6-6-6---6-6-6-------0--0------3p0-----||
					                   *       *  *

SOLO Gtr1:dave mustaine
|------------------|-------------------|---------------------------|----------------|
|------------------|-------------------|--------------10/12--10~~--|-(10)~~~--8--7~~|
|--4/-9\-4--4b(5)~~|--(5)~~~~~~~~~~~~-~|-(4)(rb)-4/9---------------|----------------|
|------------------|-------------------|---------------------------|----------------|
|------------------|-------------------|---------------------------|----------------|
|------------------|-------------------|---------------------------|----------------|


|------------------0---12p0--12p0--10p0-|---10p0-10-14p0-12-14-15-14-15-12h14p12----12----|
|---------------12---12----12----12-----|12--------------------------------------15----15-|
|-7p0--9-12p0-12------------------------|-------------------------------------------------|
|---------------------------------------|-------------------------------------------------|
|---------------------------------------|-------------------------------------------------|
|---------------------------------------|-------------------------------------------------|


|----------------------------12h17p12----------|
|-(17pb15)-(rb15)-12~~-12h15----------15p12----|
|-------------------------------------------14-|
|----------------------------------------------|
|----------------------------------------------|
|----------------------------------------------|


|--------------------------------------------------|---------------------------------|
|-12----------------------14-----------------------|---------------------------------|
|----14b(16)-rb(14)p12----14----12h14p14~~~~-(12)\-|-2b(4)r(3)b(4)-2b(4)-2b(4)-2b(4)-|
|----------------------14----14--------------------|---------------------------------|
|--------------------------------------------------|---------------------------------|
|--------------------------------------------------|---------------------------------|


|----------------------------------------------------|-------------------------|
|----------------------------------------------------|-------------------------|
|-2b(4)-(3)pb(2)-(4)pb(2)-(2)-(2)-(2)-(2)-(2)--4p2p0-|-------4--------4--------|
|----------------------------------------------------|-2--5-----2--5-----5--2--|
|----------------------------------------------------|-------------------------|
|----------------------------------------------------|-------------------------|

[ Tab from: http://www.guitartabs.cc/tabs/m/megadeth/angry_again_tab_ver_2.html ]
|------------------------|---------------------------------------------|
|------------------------|-/10--10-10-10--10-10-10/12-12-12-12---(12)\-|
|-------------4--5-------|---------------------------------------------|
|-6--7--4-----------7--4-|-/7---7--7--7---7--7---7/9--9--9--9----(9)\--|
|-5--6-----6-------------|---------------------------------------------|
|------------------------|---------------------------------------------|


|------------------------------------|------------------------------------|
|-----------------------2h3p2---2--2-|-2/10~~~-10-10-(12pb10)~~~~--/17p14-|
|-0-4-4b(6)-(4)-(6)~~~~-------4------|------------------------------------|
|-0----------------------------------|------------------------------------|
|------------------------------------|------------------------------------|
|------------------------------------|------------------------------------|


|-17b(19)--17b(19)~~~~~~-1919h20p19p17-19-17----------------17--||
|--------------------------------------------20p19p17-19h20-----||
|---------------------------------------------------------------||Back to verse
|---------------------------------------------------------------||
|---------------------------------------------------------------||
|---------------------------------------------------------------||



Rhythm under solo:Gtr 2 marty friedman
|--------------------|---------------------|---------------------|
|--------------------|---------------------|------------------0--|
|--------------------|--------2------------|------------------2--|
|-----------------7--|------------------9--|------------------0--|
|-----------------5--|--------3---------7--|---------------------|
|--0--0--0--0--0-----|--0--0-------3p0-----|--0--0--0--0--0------|
   *  *  *  *  *        *  *                  *  *  *  *  *

|---------------------|--------------------|-----------------------|
|---------------------|--------------------|-----------------------|
|--------2------------|-----------------4--|--------2--------------|
|------------------9--|--------------------|--------------------9--|
|--------3---------7--|-----------------5--|--------3-----------7--|
|--0--0-------3p0-----|--0--0--0--0--0-----|--0--0---------3p0-----|
   *  *                  *  *  *  *  *        *  *

|--------------------|-----------------------|-----------------------|
|--------------------|-----------------------|-----------------------|
|-----------------4--|--------2--------------|-----------------------|
|--------------------|-----------------------|-----2--------2--------|
|-----------------5--|--------3-----------2--|--2--------3-----3--2--|
|--0--0--0--0--0-----|--0--0---------3p0--0--|--------0--------------|
   *  *  *  *  *        *  *                          *

|--------------------------|--------------------------|--------------------------|
|--------------------------|--------------------------|--------------------------|
|--------------------------|--------------------------|--------------------------|
|--0--1--------------------|--------2--------2--------|--0--1--------4--5--------|
|--------2-----------------|-----2--------3-----3--2--|--------2-----------6-----|
|-----------3--2--1--2--3--|--0--------0--------------|-----------3-----------7--|
               *  *  *  *     *        *                    

|----------------------------|---------------------------|
|----------------------------|---------------------------|
|----------------------------|---------------------------|
|--------4----------4--------|--2--3---------------------|
|-----4--------4/5-----5--4--|--------4------------------|
|--2--------2----------------|-----------5--4--3--4---5--|
                                            *  *  *   *

|----------------------------|--------------------------||
|----------------------------|--------------------------||
|----------------------------|--------------------------||Back to verse
|--------4----------4--------|--2--3--------------------||
|-----4--------4/5-----5--4--|--------4-----------------||
|--2--------2----------------|-----------5--4--3--2--1--||
                                            *  *  *  *
       
                                               
Chorus 3:
|-----------------------------|-----------------------|-----------------------------|
|-----------------------------|-----------------------|-----------------------------|
|-----------------------------|-----------------------|-----------------------------|
|-5------4---5-----9---7---5--|--------2-----4--4-----|-5------4---5-----9---7---2--|
|-7------5---7-----10--9---7--|--------3-----5--5-----|-7------5---7-----10--9---3--|
|-----0---------0-------------|--0--0-----0--------0--|-----0---------0-------------|
|     *         *                *  *     *        *        *         *
|
|
|-----------------------------|-----------------------|-----------------------------|
|-----------------------------|-----------------------|-----------------------------|
|-----------------------------|-----------------------|-----------------------------|
|-9------7---9-----12--10--9--|--------5-----7--7-----|-9------7---9-----12--10--9--|
|-10-----9---10----14--12--10-|--------7-----9--9-----|-10-----9---10----14--12--10-|
|-----0---------0-------------|--0--0-----0--------0--|----0-----------0------------|
      *         *                *  *     *        *       *           *
 


|----------------------------|-----------------------------|-----------------------|
|----------------------------|-----------------------------|-----------------------|
|----------------------------|-----------------------------|-----------------------|
|-(2)--------4---------------|-5------4---5-----9---7---5--|--------2-----4--4-----|
|-(3)--------5---------------|-7------5---7-----10--9---7--|--------3-----5--5-----|
|------0--0---------0--0--0--|-----0---------0-------------|--0--0-----0--------0--|
|      *  *         *  *  *        *         *                *  *     *        *
|
|
|----------------------------|-----------------------------|-----------------------|
|----------------------------|-----------------------------|-----------------------|
|----------------------------|-----------------------------|-----------------------|
|-(2)--------7---------------|-5------7---9-----12--10--9--|--------5-----7--7-----|
|-(3)--------9---------------|-7------9---10----14--12--10-|--------7-----9--9-----|
|------0--0---------0--0--0--|-----0---------0-------------|--0--0-----0--------0--|
       *  *         *  *  *        *         *                *  *     *        *
   

|------------------------------|-------------------------|-------------------------|
|------------------------------|-------------------------|-------------------------|
|------------------------------|-------------------------|-------------------------|
|-5------4---5------9---7---2--|-(2)--------5---------2--|--------0----------------|
|-7------5---7------10--9---3--|-(3)--------2---------0--|--------2----------------|
|-----0----------0-------------|------0--0------0--0-----|-0--0--------3(hb)----0--|
|     *          *                    *  *      *  *       *  *
|
|
|------------------------------|-------------------------|-------------------------|
|------------------------------|-------------------------|-------------------------|
|-------------------7---5---4--|-(4)--------4---------4--|--------4----------------|
|-9------7---9------9---7---5--|-(5)--------5---------2--|--------5----------------|
|-10-----9---10----------------|-------------------------|-------------------------|
|-----0----------0-------------|------0--0------0--0-----|-0--0--------3(hb)----0--|
      *          *                    *  *      *  *       *  *

|---------------------------|-----------------------|---------------------|
|---------------------------|-----------------------|---------------------|
|---------------------------|-----------------------|---------------------|
|--------5---------------5--|--------5-----------2--|--------5------------|
|--------2---------------3--|--------2-----------0--|--------2------------|
|--0--0---------3b(4)-------|--0--0--------0--0-----|--0--0-------3p0--0--|
|  *  *                        *  *        *  *        *  *
|
|
|---------------------------|-----------------------|---------------------|
|---------------------------|-----------------------|---------------------|
|------------------------4--|--------4-----------4--|--------4------------|
|--------5---------------5--|--------5-----------2--|--------5------------|
|--------4------------------|-----------------------|---------------------|
|--0--0---------3b(4)-------|--0--0--------0--0-----|--0--0-------3p0--0--|
   *  *                        *  *        *  *        *  *


                                                     
Outro-Chorus:
|-----------------------------|-----------------------|-----------------------------|
|-----------------------------|-----------------------|-----------------------------|
|-----------------------------|-----------------------|-----------------------------|
|-5------4---5-----9---7---5--|--------2-----4--4-----|-5------4---5-----9---7---2--|
|-7------5---7-----10--9---7--|--------3-----5--5-----|-7------5---7-----10--9---3--|
|-----0---------0-------------|--0--0-----0--------0--|-----0---------0-------------|
|     *        *                 *  *     *        *        *         *
|
|
|-----------------------------|-----------------------|-----------------------------|
|-----------------------------|-----------------------|-----------------------------|
|-----------------------------|-----------------------|-----------------------------|
|-9------7---9-----12--10--9--|--------5-----7--7-----|-9------7---9-----12--10--9--|
|-10-----9---10----14--12--10-|--------7-----9--9-----|-10-----9---10----14--12--10-|
|-----0---------0-------------|--0--0-----0--------0--|----0-----------0------------|
      *         *                *  *     *        *       *           *
 


|----------------------------|-----------------------------|-----------------------|
|----------------------------|-----------------------------|-----------------------|
|----------------------------|-----------------------------|-----------------------|
|-(2)--------4---------------|-5------4---5-----9---7---5--|--------2-----4--4-----|
|-(3)--------5---------------|-7------5---7-----10--9---7--|--------3-----5--5-----|
|------0--0---------0--0--0--|-----0---------0-------------|--0--0-----0--------0--|
|      *  *         *  *  *        *         *                *  *     *        *
|
|
|----------------------------|-----------------------------|-----------------------|
|----------------------------|-----------------------------|-----------------------|
|----------------------------|-----------------------------|-----------------------|
|-(2)--------7---------------|-5------7---9-----12--10--9--|--------5-----7--7-----|
|-(3)--------9---------------|-7------9---10----14--12--10-|--------7-----9--9-----|
|------0--0---------0--0--0--|-----0---------0-------------|--0--0-----0--------0--|
       *  *         *  *  *        *         *                *  *     *        *
   


|------------------------------|-------------------------|-------------------|
|------------------------------|-------------------------|-------------------|
|---------------------------0--|-------------------------|-------------------|
|-5------4---5------9---7---2--|------------5---------2--|--------0----------|
|-7------5---7------10--9---3--|------------2---------0--|--------2----------|
|-----0----------0-------------|------0--0------0--0-----|-0--0--------3(4)--|
|     *         *                     *  *      *  *       *  *
|
|
|------------------------------|-------------------------|-------------------|
|------------------------------|-------------------------|-------------------|
|-------------------7---5---4--|-(4)--------4---------4--|--------4----------|
|-9------7---9------9---7---5--|-(5)--------5---------2--|--------5----------|
|-10-----9---10----------------|-------------------------|-------------------|
|-----0----------0-------------|------0--0------0--0-----|-0--0--------3(4)--|
      *          *                    *  *      *  *       *   *           
 

|-----------------|--------------------------|------------|
|-3-4-----7-8-----|-11-12--------------------|------------|
|-----4-------8---|-------12-----------------|------------|
|-------5-------9-|----------13--------------|-2----------|
|-----------------|--------------------------|-2----------|
|-----------------|--------------2--1--2--3--|-0----------|
|                                *  *  *  *
|                                           
|                                           
|-----------------|--------------------------|------------|
|-----------------|--------------------------|------------|
|-----------------|--------------------------|------------|
|-0-1-----4-5-----|--6--9--------------------|-2----------|
|-----2-------6---|-------10-----------------|-2----------|
|-------3-------7-|----------11--2--1--2--3--|-0----------|
                                 *  *  *  *

Well their ya go if theirs any mistakes,Tuff! 
it took for me ages to write out figure it out for yourself :)

usual comment's requests and stuff to andrew_mellor@talk21.com

                                   REAL METAL FUCKIN RULES
                                     NU METAL SUCKS ASS







Comments