Megadeth - Anarchy In The Uk Chords & Tabs

 

Anarchy In The Uk Chords & Tabs

Megadeth Chords & Tabs

Version: 5 Type: Tab 0 ratings
1 star 2 stars 3 stars 4 stars 5 stars
comments

Anarchy In The Uk Tab

   
Megadeth
Album So Good so far so what
Anarchy in the U.K.
  
Gtr I (E A D G B E) - Jeff Young from little ole` Dayton Ohio
Gtr II (E A D G B E) - 'Mustaine'

 Intro
  Moderately Fast Rock Q=160
  G5                                 F5               E5      D5
 4/4
  Gtrs I, II
|----------------|-----------------|----------------|----------------|
|----------------|-----------------|----------------|----------------|
|----------------|-----------------|----------------|----------------|
|----------------|-----------------|----------------|---------7--7---|
|-5--5-5-5-5-5-5-|-5-5-5-5-5-5-5-5-|-3--3-3-3-3-3-3-|-2-2-2-2-5--5---|
|-3--3-3-3-3-3-3-|-3-3-3-3-3-3-3-3-|-1--1-1-1-1-1-1-|-0-0-0-0--------|


  C5                       F5 E5  C5                           F5 E5  C5
|----------------|------------------|----------------|------------------||
|----------------|------------------|----------------|------------------||
|----------------|------------------|----------------|------------------||
|-5--5-5-5-5-5-5-|-5-5-5-5-10s9-9s5-|-5--5-5-5-5-5-5-|-5-5-5-5-10s9-9s5-||
|-3--3-3-3-3-3-3-|-3-3-3-3--8s7-7s3-|-3--3-3-3-3-3-3-|-3-3-3-3--8s7-7s3-||
|----------------|------------------|----------------|------------------||


   Verse
    $
    $$
    C5                       F5 E5  C5                           F5 E5  C5
    Gtrs I, II
||-----------------|------------------|----------------|-------------------|
||o----------------|------------------|----------------|-------------------|
||-----------------|------------------|----------------|-------------------|
||--5--5-5-5-5-5-5-|-5-5-5-5-10s9-9s5-|-5--5-5-5-5-5-5-|-5-5-5-5-10s9-9s5--|
||o-3--3-3-3-3-3-3-|-3-3-3-3--8s7-7s3-|-3--3-3-3-3-3-3-|-3-3-3-3--8s7-7s3--|
||-----------------|------------------|----------------|-------------------|


                           F5 E5  C5
|----------------|------------------|----------------|-----------------||
|----------------|------------------|----------------|-----------------||
|----------------|------------------|----------------|-----------------||
|-5--5-5-5-5-5-5-|-5-5-5-5-10s9-9s5-|-5--5-5-5-5-5-5-|-5-5-5-5-5-5-5-5-||
|-3--3-3-3-3-3-3-|-3-3-3-3--8s7-7s3-|-3--3-3-3-3-3-3-|-3-3-3-3-3-3-3-3-||
|----------------|------------------|----------------|-----------------||


 Chorus
                                                      To Coda
                                                      To Coda
  G5                                 F5               E5   D5
|-----------------|----------------|----------------|-----------|
|-----------------|----------------|----------------|-----------|
|-----------------|----------------|----------------|-----------|
|-----------------|----------------|----------------|------7----|
|-5-5-5-5-5-5-5-5-|-5-5-5-5-5-5-5--|-3--3-3-3-3-3-3-|-2----5----|
|-3-3-3-3-3-3-3-3-|-3-3-3-3-3-3-3--|-1--1-1-1-1-1-1-|-0---------|


  C5                       F5 E5  C5                   G5
|----------------|------------------|----------------|------------------||
|----------------|------------------|----------------|-----------------o||
|----------------|------------------|----------------|------------------||
|-5--5-5-5-5-5-5-|-5-5-5-5-10s9-9s5-|-5--5-5-5-5-5-5-|------------------||
|-3--3-3-3-3-3-3-|-3-3-3-3--8s7-7s3-|-3--3-3-3-3-3-3-|-5-5-5-5-5-5-5-5-o||
|----------------|------------------|----------------|-3-3-3-3-3-3-3-3--||


 Guitar Solo 1
  D5                       E5
  Gtr I
|------------------------|--------------------|
|------------------------|--------------------|
|------------------------|--------------------|
|---7--7-7--7-7-7-7---7--|--------------------|
|---5--5-5--5-5-5-5---5--|--2--2-2--2-2-2-2-2-|
|------------------------|--0--0-0--0-0-0-0-0-|
|
| Gtr II
|           ~~~~~~~~~~~~~
|------------------------|--------------------|
|------------------------|-12-10--------------|
|-/11-14---11-------(11)-|-12------12S====9---|
|------------------------|--------------------|
|------------------------|--------------------|
|------------------------|--------------------|


  D5                       E5
|------------------------|--------------------|
|------------------------|--------------------|
|------------------------|--------------------|
|---7--7-7--7-7-7-7---7--|--------------------|
|---5--5-5--5-5-5-5---5--|--2--2-2--2-2-2-2-2-|
|------------------------|--0--0-0--0-0-0-0-0-|
|
|           ~~~~~~~~~~~~~
|------------------------|--------------------|
|------------------------|-12-10--------------|
|-/11-14---11-------(11)-|-12------12S====9---|
|------------------------|--------------------|
|------------------------|--------------------|
|------------------------|--------------------|


  D5                       E5
|------------------------|--------------------|
|------------------------|--------------------|
|------------------------|--------------------|
|---7--7-7--7-7-7-7---7--|--------------------|
|---5--5-5--5-5-5-5---5--|--2--2-2--2-2-2-2-2-|
|------------------------|--0--0-0--0-0-0-0-0-|
|
|           ~~~~~~~~~~~~~
|------------------------|--------------------|
|------------------------|-12-10--------------|
|-/11-14---11-------(11)-|-12------12S====9---|
|------------------------|--------------------|
|------------------------|--------------------|
|------------------------|--------------------|


  D5                       G5
|------------------------|--------------------------------------------|
|------------------------|--------------------------------------------|
|------------------------|--------------------------------------------|
|---7--7-7--7-7-7-7---7--|--------------------------------------------|
|---5--5-5--5-5-5-5---5--|--5-----5-----5--5-----5-----5--5-----5-----|
|------------------------|--3-----3-----3--3-----3-----3--3-----3-----|
|
|           ~~~~~~~~~~~~~
|------------------------|-------15-------------15-------------15-----|
|------------------------|----------18-15----------18-15----------18--|
|-/11-14---11-------(11)-|-17b19----------17b19----------17b19--------|
|------------------------|--------------------------------------------|
|------------------------|--------------------------------------------|
|------------------------|--------------------------------------------|


|-----------------------------------------|
|-----------------------------------------|
|-----------------------------------------|
|-----------------------------------------|
|--5--5-----5-----5--5------5---5------5--|
|--3--3-----3-----3--3------3---3------3--|
|
|----------15-----------------------------|
|-15----------18-15-18b20-(18)-18b20-(18)-|
|----17b19--------------------------------|
|-----------------------------------------|
|-----------------------------------------|
|-----------------------------------------|


                                                      D.S. al Coda
|---------------------------------------------|---------------------||
|---------------------------------------------|---------------------||
|---------------------------------------------|---------------------||
|---------------------------------------------|---------------------||
|--5----5-----5----5-----5----5-----5----5----|--5----5-5-5-5-5-5-5-||
|--3----3-----3----3-----3----3-----3----3----|--3----3-3-3-3-3-3-3-||
|
|-20-18---15-20-18---15-20-18---15-20-18---15-|-20b22r==============||
|-20-18---15-20-18---15-20-18---15-20-18---15-|---------------------||
|---------------------------------------------|---------------------||
|---------------------------------------------|---------------------||
|---------------------------------------------|---------------------||
|---------------------------------------------|---------------------||


  &
  C5                       F5 E5  C5
  Gtr I
|----------------|------------------|-----------------|------------------||
|----------------|------------------|-----------------|------------------||
|----------------|------------------|-----------------|------------------||
|-5--5-5-5-5-5-5-|-5-5-5-5-10s9-9s5-|-5-5-5-5-5-5-5-5-|-5-5-5-5-5--5-5-5-||
|-3--3-3-3-3-3-3-|-3-3-3-3--8s7-7s3-|-3-3-3-3-3-3-3-3-|-3-3-3-3-3--3-3-3-||
|----------------|------------------|-----------------|------------------||
|
| Gtr II
|----------------|------------------|-----------------|------------------||
|----------------|------------------|-----------------|------------------||
|----------------|------------------|-----------------|---------2/-------||
|-5--5-5-5-5-5-5-|-5-5-5-5-10s9-9s5-|-5-5-5-5-5-5-5-5-|------------------||
|-3--3-3-3-3-3-3-|-3-3-3-3--8s7-7s3-|-3-3-3-3-3-3-3-3-|------------------||
|----------------|------------------|-----------------|------------------||


 Guitar Solo 2
  D5
|-------------------------|-------------------------|
|-------------------------|-------------------------|
|-------------------------|-------------------------|
|--7--7--7--7--7--7--7--7-|--7--7--7--7--7--7--7--7-|
|--5--5--5--5--5--5--5--5-|--5--5--5--5--5--5--5--5-|
|-------------------------|-------------------------|
|
|-------------------------|-------------------------|
|-10-10-10-10-10-10-10-10-|-10-10-10-10-10-10-10-10-|
|-11-11-11--9--9-11-11-12-|-11-11-11--9--9-11-11-11-|
|--0--0--0--0--0--0--0--0-|--0--0--0--0--0--0--0--0-|
|-------------------------|-------------------------|
|-------------------------|-------------------------|

[ Tab from: http://www.guitartabs.cc/tabs/m/megadeth/anarchy_in_the_uk_tab_ver_5.html ]
|-------------------------|-------------------------|
|-------------------------|-------------------------|
|-------------------------|-------------------------|
|--7--7--7--7--7--7--7--7-|--7--7--7--7--7--7--7--7-|
|--5--5--5--5--5--5--5--5-|--5--5--5--5--5--5--5--5-|
|-------------------------|-------------------------|
|
|-------------------------|-------------------------|
|-10-10-10-10-10-10-10-10-|-10-10-10-10-10-10-10-10-|
|-11-11-11--9--9-11-11-12-|-11-11-11--9--9-11-11-11-|
|--0--0--0--0--0--0--0--0-|--0--0--0--0--0--0--0--0-|
|-------------------------|-------------------------|
|-------------------------|-------------------------|


|-------------------------|-------------------------|
|-------------------------|-------------------------|
|-------------------------|-------------------------|
|--7--7--7--7--7--7--7--7-|--7--7--7--7--7--7--7--7-|
|--5--5--5--5--5--5--5--5-|--5--5--5--5--5--5--5--5-|
|-------------------------|-------------------------|
|
|-------------------------|-------------------------|
|-10-10-10-10-10-10-10-10-|-10-10-10-10-10-10-10-10-|
|-11-11-11--9--9-11-11-12-|-11-11-11--9--9-11-11-11-|
|--0--0--0--0--0--0--0--0-|--0--0--0--0--0--0--0--0-|
|-------------------------|-------------------------|
|-------------------------|-------------------------|


                                            D.S.S. al Dbl. Coda
|----------------------------------|-------------------------------||
|----------------------------------|-------------------------------||
|----------------------------------|-------------------------------||
|-7-----7---7-7-----7---7-7-----7--|--7-7-----7-7-----7-7----7--7--||
|-5-----5---5-5-----5---5-5-----5--|--5-5-----5-5-----5-5----5--5--||
|----------------------------------|-------------------------------||
|
|                                                       ~~~~~~~~~~~
|----------10----------10----------|-10------10------10------------||
|-8b10-(8)-10-8b10-(8)-10-8b10-(8)-|-10-8b10-10-8b10-10-8b10---(8)-||
|----------------------------------|-------------------------------||
|----------------------------------|-------------------------------||
|----------------------------------|-------------------------------||
|----------------------------------|-------------------------------||


 Out-Chorus
  &&
  C5                                     F5   E5  C5
  Gtr I
|----------------------|----------------------------|
|----------------------|----------------------------|
|----------------------|----------------------------|
|-5--5-5-5----5----5-5-|---5---5--5---5---10s=9-9s5-|
|-3--3-3-3----3----3-3-|---3---3--3---3----8s=7-7s3-|
|----------------------|----------------------------|
|
| Gtr II
|                  ~~~~~~~~~~~
|----------------------|----------------------------|
|----------------------|----------------------------|
|--------9-7----7------|----------------------------|
|------------10---10---|-(10)-----------------------|
|----------------------|------10-12-[10]-(10)-------|
|----------------------|----------------------------|


|----------------------------------|--------------------|
|----------------------------------|--------------------|
|----------------------------------|--------------------|
|---5-----5-5-5---5--5--5-----5----|---5--5-5-5-5-5-5-5-|
|---3-----3-3-3---3--3--3-----3----|---3--3-3-3-3-3-3-3-|
|----------------------------------|--------------------|
|
|                                ~~~~~~~~~
|----------------------------------|--------------------|
|----------------------------------|--------------------|
|-[14]b16-------(14)---------------|--------------------|
|----------------------12h14p12----|--------------------|
|-------------------------------15-|-(15)---------------|
|----------------------------------|--------------------|


  G5                                 F5               E5   D5
  Gtrs I, II
|-----------------|----------------|----------------|-----------|
|-----------------|----------------|----------------|-----------|
|-----------------|----------------|----------------|-----------|
|-----------------|----------------|----------------|------7----|
|-5-5-5-5-5-5-5-5-|-5-5-5-5-5-5-5--|-3--3-3-3-3-3-3-|-2----5----|
|-3-3-3-3-3-3-3-3-|-3-3-3-3-3-3-3--|-1--1-1-1-1-1-1-|-0---------|


  C5
  Gtr I
|-------------------------------------------------------------|
|-------------------------------------------------------------|
|-------------------------------------------------------------|
|--5--------------5-------5-----5-------5--------5-------5----|
|--3--------------3-------3-----3-------3--------3-------3----|
|-------------------------------------------------------------|
|
| Gtr II
|-------------------------------------------------------------|
|-------13-------13---------13-------13---------13---------13-|
|-15b17----15b17----15b17------15b17------15b17----15b17------|
|-------------------------------------------------------------|
|-------------------------------------------------------------|
|-------------------------------------------------------------|


                     F5 E5          C5
|-----------------------------------------|---------------------------------|
|-----------------------------------------|---------------------------------|
|-----------------------------------------|---------------------------------|
|--5------5---5----5-10s=9-----9s====5----|--5-----5-----5----5-5-5---5--5--|
|--3------3---3----3--8s=7-----7s====3----|--3-----3-----3----3-3-3---3--3--|
|-----------------------------------------|---------------------------------|
|
|                                                        ~~~~~~~~~~~~~~~~
|-----------------------------------------|---------------------------------|
|-16b17-(16)-16b17r==13-16-13-------------|---------------------------------|
|-----------------------------15-12-15----|-12-15-12------------------------|
|--------------------------------------15-|----------15-15b17-------(15)----|
|-----------------------------------------|---------------------------------|
|-----------------------------------------|---------------------------------|


                        G5
|---------------------|------------------------|
|---------------------|------------------------|
|---------------------|------------------------|
|--5-5-5-5---5--5-5-5-|------------------------|
|--3-3-3-3---3--3-3-3-|---5--5--5-5---5--5-5-5-|
|---------------------|---3--3--3-3---3--3-3-3-|
|
|            ~~~~~~~~~~~~~~~~
|---------------------|------------------------|
|---------------------|------------------------|
|---------------------|--------12---(12)-------|
|-13------------------|------------------------|
|----------(15)-------|-(15)-------------------|
|---------------------|------------------------|


                      F5
|-------------------|-----------------|
|-------------------|-----------------|
|-------------------|-----------------|
|-------------------|-----------------|
|---5--5-5-5-5-5-5--|--3--3-3-3-3-3-3-|
|---3--3-3-3-3-3-3--|--1--1-1-1-1-1-1-|
|
|-------------------|-----------------|
|-------------------|-----------------|
|-(12)--------------|-10--------------|
|-------------------|-----------------|
|-------------------|-----------------|
|-------------------|-----------------|


  E5   D5     C5                         F5 E5  C5
|-----------|----------------|--------------------|-------------------|
|-----------|----------------|--------------------|-------------------|
|-----------|----------------|--------------------|-------------------|
|------7----|-5--5-5-5-5-5-5-|--5--5-5-5-10s9-9s5-|--5--5-5-5-5-5-5-5-|
|-2----5----|-3--3-3-3-3-3-3-|--3--3-3-3--8s7-7s3-|--3--3-3-3-3-3-3-3-|
|-0---------|----------------|--------------------|-------------------|
|
|-----------|----------------|--------------------|-------------------|
|-----------|----------------|--------------------|-------------------|
|-9----7----|-5--------------|-(5)----------------|-(5)---------------|
|-----------|----------------|--------------------|-------------------|
|-----------|----------------|--------------------|-------------------|
|-----------|----------------|--------------------|-------------------|


                      G5                                     F5
|-------------------|------------------|-------------------|-----------------|
|-------------------|------------------|-------------------|-----------------|
|-------------------|------------------|-------------------|-----------------|
|--5--5-5-5-5-5-5-5-|------------------|-------------------|-----------------|
|--3--3-3-3-3-3-3-3-|--5-5-5-5-5-5-5-5-|---5--5-5-5-5-5-5--|--3--3-3-3-3-3-3-|
|-------------------|--3-3-3-3-3-3-3-3-|---3--3-3-3-3-3-3--|--1--1-1-1-1-1-1-|
|
|-------------------|------------------|-------------------|-----------------|
|-------------------|------------------|-------------------|-----------------|
|-(5)---------------|-12---------------|-(12)--------------|-10--------------|
|-------------------|------------------|-------------------|-----------------|
|-------------------|------------------|-------------------|-----------------|
|-------------------|------------------|-------------------|-----------------|


  E5   D5     C5                         F5 E5  C5
|-----------|----------------|--------------------|-----------------|------*|
|-----------|----------------|--------------------|-----------------|------*|
|-----------|----------------|--------------------|-----------------|------*|
|------7----|-5--5-5-5-5-5-5-|--5--5-5-5-10s9-9s5-|-5-5-5-5-5-5-5-5-|-5----*|
|-2----5----|-3--3-3-3-3-3-3-|--3--3-3-3--8s7-7s3-|-3-3-3-3-3-3-3-3-|-3----*|
|-0---------|----------------|--------------------|-----------------|------*|
|
|-----------|----------------|--------------------|-----------------|------*|
|-----------|----------------|--------------------|-----------------|------*|
|-9----7----|-5--------------|-(5)----------------|-----------------|------*|
|-----------|----------------|--------------------|-----------------|------*|
|-----------|----------------|--------------------|-----------------|------*|
|-----------|----------------|--------------------|-----------------|------*|



Comments