Megadeth - Almost Honest Chords & Tabs

 

Almost Honest Chords & Tabs

Megadeth Chords & Tabs

Version: 1 Type: Bass Tab 0 ratings
1 star 2 stars 3 stars 4 stars 5 stars
comments

Almost Honest Bass Tab

   
Artist: Megadeth
Song: Almost Honest (bass tab)

Transcribed by: Jeff Jacobson

Taken from Guitar Magazine August 1997 Volume 14 Number 10

Posted by: Ian Mullins

Timing:

Moderate Rock 140 b.p.m

Tuning:

Dropped D ( E=>D )

Intro

|----------------------------------|----------------------------------|
|------------rest for approx.------|----------------------------------|
|------------4 measures------------|----------------------------------|
|----------------------------------|-------------------------------2--|

|----------------------------------|----------------------------------|
|----------------------------------|----------------------------------|
|-------------------------------O--|-(O)------------------------------|
|-(2)---2---2---4---5---5---5------|-------2---2---2---2---2---2---2--|

|----------------------------------|----------------------------------|
|----------------------------------|----------------------------------|
|-------------------------------O--|-(O)---------------------------O--|
|-(2)---2---2---4---5---5---5------|-------2---2---2---2---2---2------|

|----------------------------------|
|----------------------------------|
|--------------5-------7\----------|
|------2---------------sl------2---|

1st Verse
                                               I     lied just a  lit -
|----------------------------------|----------------------------------|
|----------------------------------|----------------------------------|
|-------------------------------O--|-(O)------------------------------|
|-(2)---2---2---4---5---5---5------|-------2---2---2---2---2---2---2--|

  tle...
|----------------------------------|----------------------------------|
|----------------------------------|----------------------------------|
|-------------------------------O--|-(O)------------------------------|
|-(2)---2---2---4---5---2---2------|-------2---2---2---2---2---2---2--|

|----------------------------------|----------------------------------|
|----------------------------------|----------------------------------|
|-------------------------------O--|-(O)------------------------------|
|-(2)---2---2---4---5---5---5------|-------2---2---2---2---2---2---2--|

|----------------------------------|----------------------------------|
|----------------------------------|----------------------------------|
|-------------------------------O--|-(O)------------------------------|
|-(2)---2---2---4---5---2---2------|-------2---2---2---2---2---2---2--|

|----------------------------------|----------------------------------|
|----------------------------------|----------------------------------|
|-------------------------------O--|-(O)------------------------------|
|-(2)---2---2---4---5---5---5------|-------2---2---2---2---2---2---2--|


|----------------------------------|----------------------------------|
|----------------------------------|----------------------------------|
|-------------------------------O--|-(O)------------------------------|
|-(2)---2---2---4---5---5---5------|-------2---2---2---2---2---2---2--|

|----------------------------------|----------------------------------|
|----------------------------------|----------------------------------|
|-------------------------------O--|-(O)---------------------------O--|
|-(2)---2---2---4---5---5---5------|-------2---2---2---2---2---2------|

|----------------------------------|----------------------------------|
|----------------------------------|----------------------------------|
|-(O)---------------------------O--|-----------------------------2----|
|-------2---2---2---2---2---2------|------2------O-------1------------|

|----------------------------------|----------------------------------|
|----------------------------------|----------------------------------|
|-(2)--2---O---1---2---2---O---1---|-2---2---O---1---2-----1-----0----|
|----------------------------------|----------------------------------|

Chorus

 Liv - ing  a - lone...
|----------------------------------|----------------------------------|
|----------------------------------|--------------------------O---2---|
|-------------------------------O--|--O---O---O---O---O---2-----------|
|--2----2---2----2---2---2---2-----|----------------------------------|

______________________________________________________________________
|1.				   |2.
|----------------------------------|----------------------------------|
|----------------------------------|----------------------------------|
|-(O)---O--------------------------|(O)---O---------------------------|
|---------------4-------5---4---2--|------------4----------5---4---2--|

2nd Verse
					        I  was near-ly    pure...
|----------------------------------|----------------------------------|
|----------------------------------|----------------------------------|
|----------------------------------|----------------------------------|
|-(2)--2---2---2---2---2---2---2---|----2---2---2---2---2---2---2--2--|

|----------------------------------|----------------------------------|
|----------------------------------|----------------------------------|
|----------------------------------|----------------------------------|
|--2---2---2---2---2---2---2---2---|--2---2---2---2---2---2---2---2---|

|----------------------------------|----------------------------------|
|----------------------------------|----------------------------------|
|----------------------------------|----------------------------------|
|--2---2---2---2---2---2---2---2---|--2---2---2---2---2---2---2---2---|

|----------------------------------|----------------------------------|
|----------------------------------|----------------------------------|
|----------------------------------|----------------------------------|
|--2---2---2---2---2---2---2---2---|--2---2---2---2---2---2---2---2---|

|----------------------------------|----------------------------------|
|----------------------------------|----------------------------------|
|-------------------------------O--|-(O)------------------------------|
|-(2)---2---2---4---5---5---5------|-------2---2---2---2---2---2---2--|
[ Tab from: http://www.guitartabs.cc/tabs/m/megadeth/almost_honest_btab.html ]
|----------------------------------|----------------------------------|
|----------------------------------|----------------------------------|
|-------------------------------O--|-(O)------------------------------|
|-(2)---2---2---4---5---5---5------|-------2---2---2---2---2---2---2--|

|----------------------------------|----------------------------------|
|----------------------------------|----------------------------------|
|-------------------------------O--|-(O)---------------------------O--|
|-(2)---2---2---4---5---5---5------|-------2---2---2---2---2---2------|

|----------------------------------|----------------------------------|
|----------------------------------|----------------------------------|
|-(O)---------------------------O--|-----------------------------2----|
|-------2---2---2---2---2---2------|------2------O-------1------------|

|----------------------------------|----------------------------------|
|----------------------------------|----------------------------------|
|-(2)--2---O---1---2---2---O---1---|-2---2---O---1---2-----1-----O----|
|----------------------------------|----------------------------------|

Chorus

 Liv - ing  a - lone...
|----------------------------------|----------------------------------|
|----------------------------------|--------------------------O---2---|
|-------------------------------O--|--O---O---O---O---O---2-----------|
|--2----2---2----2---2---2---2-----|----------------------------------|

|----------------------------------|----------------------------------|
|----------------------------------|---------------------------------*|Repeat
|------------------------------O---|-(O)---O-------------------------*|4X
|-----2--2--2--2--2--2--2--2-------|------------4-------5---4---2-----|

Bridge
	I ques  -  tion your call...        Acoustic guitar bit
|----------------------------------|----------------------------------|
|----------------------------------|--------Rest approx. 6 measures---|
|----------------------------------|----------------------------------|
|-2--------------------------------|----------------------------------|

|----------------------------------|----------------------------------|
|----------------------------------|----------------------------------|
|-------------------------------7--|--7-------7------------------6----|
|----------------------------------|----------------------------------|

|----------------------------------|----------------------------------|
|----------------------------------|----------------------------------|
|-------6----6-----------2----4----|-5----------5----5------------4---|
|----------------------------------|----------------------------------|

|----------------------------------|----------------------------------|
|----------------------------------|----------------------------------|
|-------4----4-----------O----2----|---------3------3------------5----|
|----------------------------------|----------------------------------|

|----------------------------------|
|----------------------------------|
|-------5---5----------------------|
|------------------------------2---|

Guitar Solo
                                   ___________________________________
				   |1.-7.
|----------------------------------|----------------------------------|
|----------------------------------|---------------------------------*|
|-------------------------------O--|-(O)-----------------------------*|
|-(2)---2---2---4---5---5---5------|-------2---2---2---2---2---2---2--|

___________________________________
|8.
|----------------------------------|----------------------------------|
|----------------------------------|----------------------------------|
|-(O)--------------------------2---|-(2)--2---O---1---2---2---O---1---|
|------2---2---2---2---2---2-------|----------------------------------|

|----------------------------------|----------------------------------|
|----------------------------------|----------------------------------|
|-2---2---O---1---2-----1-----O----|----------------------------------|
|----------------------------------|----------------------------------|

Chorus

 Liv - ing  a - lone...
|----------------------------------|----------------------------------|
|----------------------------------|--------------------------O---2---|
|-------------------------------O--|--O---O---O---O---O---2-----------|
|--2----2---2----2---2---2---2-----|----------------------------------|

|----------------------------------|----------------------------------|
|----------------------------------|---------------------------------*|Repeat
|------------------------------O---|-(O)---O-------------------------*|4X
|-----2--2--2--2--2--2--2--2-------|--------------4-------5---4---2---|

Outro

   Al           -            most...
|----------------------------------|----------------------------------|
|----------------------------------|-------------------------------O--|
|------------------------------O---|-(O)--O---O---O--------2---3------|
|--2---2---2----2--2---2---2-------|----------------------------------|

|----------------------------------|----------------------------------|
|-2--------------------------------|------------------------------O---|
|------------------------------O---|-(O)--O---O---O-------2---3-------|
|----2---2----2---2---2---2--------|----------------------------------|

|----------------------------------|----------------------------------|
|-2--------------------------------|------------------------------O---|
|------------------------------O---|-(O)--O---O---O-------2---3-------|
|----2---2----2---2---2---2--------|----------------------------------|

				      Begin Fade
|----------------------------------|----------------------------------|
|----------------------------------|----------------------------------|
|-------------------------------O--|-(O)------------------------------|
|--2---2---2----2---2---2---2------|------2---2---4--------5---4---2--|

|----------------------------------|----------------------------------|
|----------------------------------|-------------------------------O--|
|-------------------------------O--|-(O)--3---2---O--------2---3------|
|----2---O---O---2---2---2--2------|----------------------------------|

								Fade Out
|----------------------------------|----------------------------------|
|-2--------------------------------|------------------------------O---|
|------------------------------O---|-(O)--3---2---O-------2---3-------|
|----2---2----2---2---2---2--------|----------------------------------|



Comments