Megadeth - A Tout Le Monde Chords & Tabs

 

A Tout Le Monde Chords & Tabs

Megadeth Chords & Tabs

Version: 3 Type: Bass Tab 0 ratings
1 star 2 stars 3 stars 4 stars 5 stars
comments

A Tout Le Monde Bass Tab

   
                 Megadeth - A Tout Le Monde

Bass: Dave Mustaine

Tune down 1/2 step (Gb Db Ab Eb)

Intro 8 bars - guitar only

Verse - only guitar for 12 bars, then:
 |--------------------------|--------------------------|
4|--------------------------|--------------------------|
4|-----------------------0--|--0--0--0--0--0--0--0--0--|
 |--2--2--2--2--2--2--4-----|--------------------------|

--------------------------|--------------------------|
--------------------------|--------------------------|
--2--2--2--2--2--0--2-----|--------------------------|
-----------------------0--|--2--2--2--2--2--2--2--0--|

--------------------------|--------------------------|
--------------------------|--------------------------|
-----------------------0--|--0--0--0--0--0--0--0--0--|
--2--2--2--2--2--2--4-----|--------------------------|

--------------------------|--------------------------|
--------------------------|--0--0--0--0--0--0--0--0--|
--2--2--2--2--2--0--2-----|--------------------------|
-----------------------0--|--------------------------|

                           Chorus
--------------------------|--------------------------|
--0--0--0--0--0--0--0--0--|--------------------------|
--------------------------|--------------------------|
--------------------------|--2--2--2--2--2--2--2--2--|

--------------------------|--------------------------|
--------------------------|--------------------------|
--------------------------|--2--2--2--2--2--2--2--0--|
--0--0--0--0--0--0--0--0--|--------------------------|

--------------------------|--------------------------|
--------------------------|--------------------------|
--------------------------|--0--0--0--0--0--0--0--2--|
--2--2--2--2--2--2--2--2--|--------------------------|

--------------------------|--------------------------|
--------------------------|--------------------------|
--4--4--4--4--4--4--4--4--|--2--2--2--2--2--2--2--2--|
--------------------------|--------------------------|
                           Verse #2
--------------------------|--------------------------|
--0--0--0--0--0--0--0--0--|--------------------------|
--------------------------|--------------------------|
--------------------------|--2--2--2--2--2--2--2--2--|

--------------------------|--------------------------|
--------------------------|--------------------------|
--------------------------|--2--2--2--2--2--2--2-----|
--0--0--0--0--0--0--0--0--|-----------------------2--|

--------------------------|
--------------------------|
--------------0--0--0-----| [x2]
--3--3--3--3-----------3--|

--------------------------|--------------------------|
--------------------------|--------------------------|
-----------------------0--|--0--0--0--0--0--0--0--0--|
--2--2--2--2--2--2--4-----|--------------------------|
[ Tab from: http://www.guitartabs.cc/tabs/m/megadeth/a_tout_le_monde_btab_ver_3.html ]
--------------------------|
--------------------------|
--2--2--2--2--2--0--2-----| [x2]
-----------------------0--|

--------------------------|--------------------------|
--0--0--0--0--0--0--0--0--|--0--0--0--0--0--0--0--0--|
--------------------------|--------------------------|
--------------------------|--------------------------|

Chorus - same as chorus #1

Guitar solo
--------------------------|--------------------------|
--------------------------|--------------------------|
--------------------------|--------------------------|
--2--2--2--2--2--2--2--2--|--0--0--0--0--0--0--0--0--|

--------------------------|--------------------------|
--------------------------|--------------------------|
--2--2--2--2--2--2--2-----|--------------0--0--0-----| [x2]
-----------------------2--|--3--3--3--3-----------3--|

Verse #3 or whatever it is
--------------------------|--------------------------|
--------------------------|--------------------------|
--------------------1--2--|--2--2--2--2--2--2--2--2--|
--4--4--4--4--4--4--------|--------------------------|

--------------------------|--------------------------|
--------------------------|--------------------------|
--4--4--4--4--4--2--4-----|--------------------------|
-----------------------2--|--4--4--4--4--4--4--4--2--|

--------------------------|--------------------------|
--------------------------|--------------------------|
--------------------1--2--|--2--2--2--2--2--2--2--2--|
--4--4--4--4--4--4--------|--------------------------|

--------------------------|----------------------------|
--------------------------|--2--2--2--2--2--2--2--2----|
--4--4--4--4--4--2--4-----|----------------------------|
-----------------------2--|----------------------------|
-------------------------------------------------------|
--2--2--2--2--2--2--2--2-------------------------------|
-------------------------------------------------------|
-------------------------------------------------------|

Chorus - same as chorus 1 [x2]


End
--------------------------|
--------------------------|
--------------------------|
--2--2--2--2--2--2--2--2--|

--------------------------|--------------------------|
--------------------------|--------------------------|
--------------------------|--2--2--2--2--2--2--2-----|
--0--0--0--0--0--0--0--0--|-----------------------2--|

--------------------------|--------------------------|
--------------------------|--------------------------|
--------------0--0--0-----|--------------------------|
--3--3--3--3-----------3--|--2--2--2--2--2--2--2--2--|

--------------------------|--------------------------|
--------------------------|--------------------------|
--------------------------|--2--2--2--2--2--2--2--2--|
--0--0--0--0--0--0--0--0--|--------------------------|

--7-6------------------------|-------------------|
-------7-6-------------------|-------------------|
------------7-5-----------2--|-------------------|
-----------------7-5--4-5----|--2----------------|
Comments