Megadeth - 1000 Times Goodbye Chords & Tabs

 

1000 Times Goodbye Chords & Tabs

Megadeth Chords & Tabs

Version: 1 Type: Tab 0 ratings
1 star 2 stars 3 stars 4 stars 5 stars
comments

1000 Times Goodbye Tab

 1000 TIMES GOODBYE By MEGADETH
From the album THE WORLD NEEDS A HERO

Here are most of the main chords and riffs through out the song.
INTRO Riff 1
                 x7                             
|------------------|---------------------------|
|------------------|---------------------------|
|------------------|---------------------------|
|------------------|---------------------------|
|-2222333322226543-|-2222333322-----5----------|
|-0000111100004321-|-0000111100-5h6(6)6\5-3----|
|(----------------)  (---------)
        p.m              p.m
Play this progresion over and over until the vocals kick in.
You can just play the last four notes on the E string in the first bar
Instead of the power chords.  
There is also a guitar in the background doing a feedback thing 
Play the B and then the E both at the 12th fret and let ring out till feedback.

Verse Riff:
                                                      x4
|-----------------------|-------------------------------|
|-----------------------|-------------------------------|
|-----------------------|-------------------------------|
|-----------------------|-------------------------------|
|----5h7----5h7---------|----5h7----8p7--------5--------|
|-00-----00-----00000000|-00-----00-----00-5h6(6)6/5-3--|
 p.m     p.m   (--p.m---) p.m    p.m

                                                         x2
|-----------------------|----------------------|
|-----------------------|----------------------|
|-----------------------|----------------------|
|-----------------------|----------------------|
|------2----3------2-23-|-----2-----3-----2-23-|
|-5-22---222---222-0-01-|5-22---222---222-0-01-|
    p.m  (p.m) (p.m)       p.m  (p.m) (p.m)

Riff under 1st solo                         x4
|---------------------|-------------|
|---------------------|-------------|
|---------------------|-------------|
|---------------------|-------------|
|------7~-------5-----|------5------|
|-0000----5-567---765-|-5567---765--|
 (p.m-)    (p.m) (p.m) (-p.m) (p.m)


I haven't figured the chorus out yet,apart from these chords
At the end.

Chorus:               x2
|??|-------------------|------------------|
|??|-------------------|------------------|
|??|-------------------|------------------|
|??|-444-2-5--444-2-5--|-444-2-3--222-2-5-|
|??|-444-2-5--444-2-5--|-444-2-3--222-2-5-|
|??|-222-0-3--222-0-3--|-222-0-3--222-0-3-|

The end chords move to this position on the second 
Part on the second chorus.

|----------------------|
|----------------------|
|-999-7-10--999-7-10---|
|-999-7-10--999-7-10---|
|-777-5-8---777-5-8----|
|----------------------|
[ Tab from: http://www.guitartabs.cc/tabs/m/megadeth/1000_times_goodbye_tab.html ]
Bridge: let all these chords ring out
|---------------------|---------------|
|---------------------|---------------|
|---------------------|---------------|
|-2---2--4--5--7--8-\-|-2--4--5--7--8-|
|-2---2--4--5--7--8-\-|-2--4--5--7--8-|
|-0---0--2--3--5--6-\-|-0--2--3--5--6-|

Solo:  Palm mute through out                                      x4
|---------------------------------|---------------------------------|
|---------------------------------|---------------------------------|
|---------------------------------|---------------------------------|
|---------------------------------|---------------------------------|
|---------------------------------|---------------------------------|
|-000-0-000-0-000-000-0-000-0-000-|-222-2-222-2-222-222-2-222-2-222-|

|---------------------------------|---------------------------------|
|---------------------------------|---------------------------------|
|---------------------------------|---------------------------------|
|---------------------------------|---------------------------------|
|---------------------------------|---------------------------------|
|-333-3-333-3-333-333-3-333-3-333-|-555-5-555-5-555-666-6-666-6-666-|

            x4
|-------------|--------|
|-------------|--------|
|-------------|--------|
|-2(2)--5-7-8-|-8-7-5--|
|-2(2)--5-7-8-|-8-7-5--|
|-0(0)--3-5-6-|-6-5-3--|
                      

|------------------------|------------------------------|
|------------------------|------------------------------|
|------------------------|------------------------------|
|------------------------|------------------------------|
|----5h7----5h7----------|----5h7----8p7--------5-------|
|-00-----00-----00000000-|-00-----00-----00-5h6(6)6/5-3-|
  p.m   p.m    (---p.m--)  p.m    p.m    p.m
                                               x2
|------------------------|-----------------------|
|------------------------|-----------------------|
|------------------------|-----------------------|
|------------------------|-------------------5-7-|
|----5h7----5h7----------|----5h7----8p7-----5-7-|
|-00-----00-----00000000-|-00-----00-----000-3-5-|
 p.m     p.m   (---p.m--)  p.m    p.m    p.m

                                                     x3
|------------------------------|-----------------------|
|------------------------------|-----------------------|
|------------------------------|-----------------------|
|------------------------------|-------------------5-7-|
|----5h7----8p7--------5-------|----5h7----8p7-----5-7-|
|-00-----00-----00-5h6(6)6/5-3-|-00-----00-----000-3-5-|
  p.m    p.m    p.m              p.m    p.m    p.m

|-----------------------------|
|-----------------------------|
|-----------------------------|
|-----------------------------|
|----5h7----8p7-5-7-8-8-7-5-2-|
|-00-----00-----3-5-6-6-5-3-0-|
 p.m     p.m

Well thats all there is for now,if anyone knows the chorus riffs
Please let me know and I will include them as soon as poss. andrew_mellor@talk21.com

                   Tabbed by Andrew
                                       ROCK ON ALL :)





Comments