Meewis Guus - Het Is Een Nacht Chords & Tabs

 

Het Is Een Nacht Chords & Tabs

Meewis Guus Chords & Tabs

Version: 1 Type: Tab 0 ratings
1 star 2 stars 3 stars 4 stars 5 stars
comments

Het Is Een Nacht Tab

I am a metal fan but this is a good tab for starters..

E|------0-------------------------------
B|-----0-0-0----------------------------
G|----0---0-----------------------------
D|--------------------------------------
E|--------------------------------------
A|---0----------------------------------

E|--------------------------------------
B|---------0----------------------------
G|------1-------------------------------
D|-----0--------------------------------
E|----2---------------------------------
A|---3----------------------------------
[ Tab from: http://www.guitartabs.cc/tabs/m/meewis_guus/het_is_een_nacht_tab.html ]
E|---------3----------------------------
B|------0---0---------------------------
G|-----0-0------------------------------
D|----0---0-----------------------------
E|--------------------------------------
A|---1----------------------------------

E|-------2------------------------------
B|-----3--------------------------------
G|----2-2-------------------------------
D|---0----------------------------------
E|--------------------------------------
A|--------------------------------------

Easy song but nice to play..

Good luck

Greetz,
UeSugi

uesugi666@hotmail.com
Comments