Meatloaf - Rock And Roll Dreams Come Through Chords & Tabs

 

Rock And Roll Dreams Come Through Chords & Tabs

Meatloaf Chords & Tabs

Version: 1 Type: Bass Tab 0 ratings
1 star 2 stars 3 stars 4 stars 5 stars
comments

Rock And Roll Dreams Come Through Bass Tab

   
 Meatloaf "Rock & Roll Dreams Come Through"
 Bat Out Of Hell II: Back Into Hell

 Intro & Solo: Play 4x Intro 2x Solo.
 G-------------------------------------------------------
 D-------------------------------------------------------
 A-------------------------------------------------------
 E-5-5-5-5-5-5-5-5-5-5-5-5-5-5-5-5-5/1-1-1-1-1-1-1-1-0-1-


 G------------------
 D------------------
 A------------------ 
 E-3-3-3-3-3-3-3-3--


 Verse: Play 2x
 G-------------------------------------------------------
 D-------------------------------------------------------
 A-------------------------------------------------------
 E-5-5-5-5-5-5-5-5-5-5-5-5-5-5-5-5-5/1-1-1-1-1-1-1-1-0-1-


 G-------------------------------------------------------
 D-------------------------------------------------------
 A-------------------------------------------------1-1-1-
 E-3-3-3-3-3-3-3-3-0-0-0-0-0-0-0-0-1-1-1-1-1-1-1-1-------


 G-------------------------------------------------------
 D-------------------------------------------------------
 A-1-1-1-1-1---------------------------------------------
 E-----------3-3-3-3-3-3-3-3-----------------------------

 Chorus: Play 2x
 G-------------------------------------------------------
 D-------------------------------------------------------
 A-------3-3-3-3-3-3-3-3-3-3-3-3-3-3-3-3-3-2-------------
 E-0-3-5-------------------------------------5-5-5-5-5-5-

[ Tab from: http://www.guitartabs.cc/tabs/m/meatloaf/rock_and_roll_dreams_come_through_btab.html ]
 G-------------------------------------------------------
 D-------------------------------------------------------
 A-------------------------------------------------------
 E-5-5-5-5-5-5-5-5-5-5/1-1-1-1-1-1-1-1-1-1-1-1-1-1-1-1-1-


 G-------------------------------------------------------
 D-------------------------------------------------------
 A-0h3-3-3-3-3-3-3-3-3-5-5-5-5-5-5-5-5-5-----------------
 E---------------------------------------3-3-3-3-3-3-3-3-

  Bridge:
 G----------------------------------
 D-3-3-3-3-/5-5-5-5-/7-7-7---7-7-7--
 A-------------------------7--------
 E----------------------------------


 G----------------------------------
 D-/3-3-3-3-/5-5-5-5-/7-7-7---7-7-7-
 A-------------------------7--------
 E----------------------------------

 G----------------------------------
 D---------5-5-5-5-7-7-7-7-7-7-7-7--
 A-5-5-5-5--------------------------
 E----------------------------------


 G--------------------
 D--------------------
 A-5-5-5-5-5-5-5-5/10-
 E--------------------

 End of Final Chorus: 
 G------------------------------------------------
 D------------------------------------------------
 A-5-5-5-5-/7-7-7-7-/8-8-8-8-8-8-/10-10-10-/------
 E------------------------------------------0-1-3-

 Outro: Play Till End
 G---------------------------------------------------------
 D---------------------------------------------------------
 A-3-3-3-3-3-3-3-3-3-3-2-----------------------------------
 E----------------------5-5-5-5-5-5-5-5-/1-1-1-1-3-3-3-3-0-

 Originaly Tab'd by Nyte
 Questions Comments or General Cursing 
 Email me at Nytethorn@aol.com
Comments