Meatloaf - I'll Lie For You(and That's The Truth) Chords & Tabs

 

I'll Lie For You(and That's The Truth) Chords & Tabs

Meatloaf Chords & Tabs

Version: 1 Type: Tab 0 ratings
1 star 2 stars 3 stars 4 stars 5 stars
comments

I'll Lie For You(and That's The Truth) Tab

Artist: Meatloaf
Song: I’ll lie for you (and that’s the truth)
By: F. Papendorf
Email: papendorffc@yahoo.com


E-----16b17---17---17---16---------------16b17r16---------------14---16---14----------------------
B---------------------------------17------------------------17---17-------------------------------
G---------------------------------------16--------------------------------------------------------
D-------------------------------------------------------------------------------------------------
A-------------------------------------------------------------------------------------------------
E-------------------------------------------------------------------------------------------------


E-------------------------------------------------------------------------------------------------
B-------------------------------------------------------------------------------------------------
G-----------13---14---16---16b18---16b18r16---14---13---------------------------------------------
D-----16----------------------------------------------------------16---14---14---13---11h13p11-----
A--------------------------------------------------------------------------------------------------
E--------------------------------------------------------------------------------------------------

[ Tab from: http://www.guitartabs.cc/tabs/m/meatloaf/ill_lie_for_youand_thats_the_truth_tab.html ]
E--------------------------------------------------------------------------------------------------
B------------------------------------------16b17--16—14--------------------------------------------
G--------------------------------------------------------------16--14--13--14--13------------------
D--------------------------11---11s14------------------------------------------------16--14--16----
A-----13s11---9------------------------------------------------------------------------------------
E--------------------12----------------------------------------------------------------------------


E---------------------------------------------------16---------------------------------------------
B---------------16---16-------14-------------------------------------------------------------------
G-----------------------------------------16-------------------------------------------------------
D-----14--16-------------16-------16-------16------------------------------------------------------
A--------------------------------------------------------------------------------------------------
E--------------------------------------------------------------------------------------------------

I was searching for this song on the net the other day, but couldn’t find it, 
so I tabbed it myself, I put it here for all the Meatloaf fans out there like myself.

That’s as close as I can get it – enjoy!!
e-mail me if you have any comments or find any errors.
Comments