Meat Puppets - Vampires Chords & Tabs

 

Vampires Chords & Tabs

Meat Puppets Chords & Tabs

Version: 1 Type: Tab 0 ratings
1 star 2 stars 3 stars 4 stars 5 stars
comments

Vampires Tab

   
##################################################################################
# This file is the author's own work and represents their interpretation of the  #
# song. You may only use this file for private study, scholarship, or research.  #
##################################################################################

Vampires 
Album: NO JOKE
Tabbed by: Halvor Wold
Song written by: Kirk Kirkwood
My e-mail: wold.halvor@organizer.net



Chords used:

Verse:
D xx0232
G 320033
D2 xx0230

Chorus:
G 355433
F 133211
D x57775
C x35553

Intro:
e-5---5----------5------------------------------------------------------
B-5---5----------5------------------------------------------------------
G-7---7----4-5---7------------------------------------------------------
D-7---7----4-5---7------------------------------------------------------
A-5---5----2-3---5------------------------------------------------------
E-----------------------------------------------------------------------


Verse: D G D D2
===============

On the D2 chords arpeggiate like so:
e-0---------------------------------------------------------------------
B----3------------------------------------------------------------------
G------2----------------------------------------------------------------
D-----------------------------------------------------------------------
A-----------------------------------------------------------------------
E-----------------------------------------------------------------------
[ Tab from: http://www.guitartabs.cc/tabs/m/meat_puppets/vampires_tab.html ]
Play this after the verse:
e-------5---------------------------------------------------------------
B-------5---------------------------------------------------------------
G-4-5---7---------------------------------------------------------------
D-4-5---7---------------------------------------------------------------
A-2-3---5---------------------------------------------------------------
E-----------------------------------------------------------------------


Chorus: G F G D F C
===================

Repeat Intro

Verse 2 (Same Chords)

Repeat Chorus
Repeat Intro

Bridge:

Guitar One:
e-----------------------------------------------------------------------
B-----------------------------------------------------------------------
G-7-7--9/11-11---7-9/12--12--11-9\7-9/11-11---7-9/12--12--11-9/11-7-----
D-----------------------------------------------------------------------
A-----------------------------------------------------------------------
E-----------------------------------------------------------------------

e-----------------------------------------------------------------------
B-7-7--8/10-10---7--12---12-\10-\8-7-8/10-10--7--/12--12--10-8/10-7-----
G-7-7--9/11-11---7--12---12-\11-\9-7-9/11-11--7--/12--12--11-9/11-7-----
D-----------------------------------------------------------------------
A-----------------------------------------------------------------------
E-----------------------------------------------------------------------

Guitar Two:Play lightly
e-----2-----2-----2-----2-----2-------7-----7-----7-----7-----7---------
B-------3-----3-----3-----3-----3-------8-----8-----8-----8-----8-Repeat
G---2-----2-----2-----2-----2-------7-----7-----7-----7-----7-----------
D-0-------------------------------5-------------------------------------
A-----------------------------------------------------------------------
E-----------------------------------------------------------------------


Verse 3 (Same Chords)

Repeat Chorus

Repeat Intro Twice

There is also a lot of slide guitar in this song.
Comments