Meat Puppets - This Day Chords & Tabs

 

This Day Chords & Tabs

Meat Puppets Chords & Tabs

Version: 1 Type: Tab 0 ratings
1 star 2 stars 3 stars 4 stars 5 stars
comments

This Day Tab

   
This Day:
---------
Tabben by: Halvor Wold
Album: Forbidden places
Written by: Curt Kirkwood
E-mail: wold.halvor@organizer.net
Intro:

e----------------------------3--3---
B----------------------------3--3---
G----------------------------4--4---
D------5--4-----5--4-----4---5--5---
A--/5--------7--------7------5--5---
E----------------------------3--3--- x4

Verse:

D - A - B-G-A-A x2 

e--3--3-------------------------------3--3---
B--3--3-------------------------------3--3---
G--4--4-------------------------------4--4---
D--5--5---------5--4-----5--4-----4---5--5---
A--5--5-----/5--------7--------7------5--5---
E--3--3-------------------------------3--3---

e---------------------------3--3---
B---------------------------3--3---
G---------------------------4--4---
D-----5--4-----5--4-----4---5--5---
A-/5--------7--------7------5--5---
E---------------------------3--3---

D - A - B-G-A-A x2 

e--3--3-------------------------------3--3---
B--3--3-------------------------------3--3---
G--4--4-------------------------------4--4---
D--5--5---------5--4-----5--4-----4---5--5---
A--5--5-----/5--------7--------7------5--5---
E--3--3-------------------------------3--3---
[ Tab from: http://www.guitartabs.cc/tabs/m/meat_puppets/this_day_tab.html ]
e---------------------------5------
B---------------------------5------
G---------------------------6------
D-----5--4-----5--4-----4---7------
A-/5--------7--------7------7------
E---------------------------5------

D - A - G - A

e-----------------------------------3--5---
B------3-------3-------2-------2----3--5---
G----2---2---2---2---2---2---2---2--4--6---
D--0-------0-------2-------2--------5--7---
A-----------------------------------5--7---
E-----------------------------------3--5---

e-----------------------------
B----3-----3-----3-----3------
G------7-----7-----7-----7----
D--0-----0-----0-----0--------
A-----------------------------
E----------------------------- x3

D - A - B-G-A-A x2 

e--3--3-------------------------------
B--3--3-------------------------------
G--4--4-------------------------------
D--5--5---------5--4-----5--4-----4---
A--5--5-----/5--------7--------7------
E--3--3------------------------------- x4

--->

e-----------------------------
B----3-----3-----3-----3------
G------7-----7-----7-----7----
D--0-----0-----0-----0--------
A-----------------------------
E----------------------------- 'til the end...

Just e-mail me if you want me to tab some songs for you... 
I`d be happy to do help since I love Meat Puppets!!!!!
Comments