Meat Puppets - Taste Of The Sun Chords & Tabs

 

Taste Of The Sun Chords & Tabs

Meat Puppets Chords & Tabs

Version: 1 Type: Tab 0 ratings
1 star 2 stars 3 stars 4 stars 5 stars
comments

Taste Of The Sun Tab

Taste of the sun
Album: NO JOKE
Tabbed by: Halvor Wold
Song written by: Kirk Kirkwood
My e-mail: wold.halvor@organizer.net


Intro:
e---------0---------1--x1-1--x1-1--1-1--1--1/3--3--3--3-3---------------
B---0-2-3---3-2-0---1--x1-1--x1-1--1-1--3--3/5--5--5--5-5---------------
G--0--------------2-2--x2-2--x1-1--1-1--3--3/5--5--5--5-5---------------
D-0-----------------3--x3-3--x3-3--3-3--3--3/5--5--5--5-5---------------
A-------------------3--x3-3--x3-3--3-3--1--1/3--3--3--3-3---------------
E-------------------1--x1-1--x1-1--1-1----------------------------------

e-----0------1--x1-1--x1-1--1-1--1--1/3--3--3--3-3----------------------
B---3---3-0--1--x1-1--x1-1--1-1--3--3/5--5--5--5-5----------------------
G--0---------2--x2-2--x1-1--1-1--3--3/5--5--5--5-5----------------------
D-0----------3--x3-3--x3-3--3-3--3--3/5--5--5--5-5----------------------
A------------3--x3-3--x3-3--3-3--1--1/3--3--3--3-3----------------------
E------------1--x1-1--x1-1--1-1-----------------------------------------
[ Tab from: http://www.guitartabs.cc/tabs/m/meat_puppets/taste_of_the_sun_tab.html ]
Verse:
e-0---1----0---1----0---1----0---1----3--x3-3--xx--5--x5-5--xx----------
B-0---1----0---1----0---1----0---1----5--x5-5--xx--6--x6-6--xx----------
G-2---2----2---2----2---2----2---2----5--x5-5--xx--5--x5-5--xx----------
D-3---3----3---3----3---3----3---3----5--x5-5--xx--3--x3-3--xx----------
A-3---3----3---3----3---3----3---3----3--x3-3--xx-----------------------
E-0---1----0---1----0---1----0---1--------------------------------------

e-1---0---1---0---1-----------------------------------------------------
B-1---0---1---0---1-----------------------------------------------------
G-2---2---2---2---2-----------------------------------------------------
D-3---3---3---3---3-----------------------------------------------------
A-3---3---3---3---3-----------------------------------------------------
E-1---0---1---0---1-----------------------------------------------------
Then Repeat Part of the Intro

Chorus:
e---------3---------------3-----------------8-------------------8-------
B-----3-----3---------3-----3----------8------8------------8------8-----
G-------5-----5---------5-----5----------10-----10-----------10-----10--
D---5-----------5---5-----------5---10-------------10---10------------10
A-3---------------3---------------8-------------------8-----------------
E-----------------------------------------------------------------------

e-------6---------6-----------8-------------8---------------------------
B-----------6-------6------------------8------8-------------------------
G-----8-------8-------8------------------10-----10----------------------
D---8-----------8-------8---8-------10-------------10-------------------
A-6-----------------------6-------8-------------------8-----------------
E-----------------------------------------------------------------------
Then play part of the intro twice
Comments