Meat Puppets - Push The Button Chords & Tabs

 

Push The Button Chords & Tabs

Meat Puppets Chords & Tabs

Version: 1 Type: Tab 0 ratings
1 star 2 stars 3 stars 4 stars 5 stars
comments

Push The Button Tab

   
Push the Button
Written by Curt Kirkwood
Tabbed by: Halvor Wold
Album: Golden lies
e-mail: wold.halvor@organizer.net

Intro:
Strum a 'G' Chord a lot
The 2nd guitar plays an 'A' on
the high 'e' string like so:
-5-5---
-------
-------
-------
-------
-------

Chorus:

The Chord structure here is:
D    a    G
(in case you wanted to know)

First Guitar:
---5-5-5-3-2---0-0-0-0----------------------------------------
-----------------------3---2-----0-0-0--2-3---3-3-3-3-2---0---
--------------------------------------------------------------
--------------------------------------------------------------
--------------------------------------------------------------
--------------------------------------------------------------
[ Tab from: http://www.guitartabs.cc/tabs/m/meat_puppets/push_the_button_tab.html ]
Second Guitar:
---2-2-2-0----------------------------------------------------
-----------3---2-2-2-2-0-----0---0-0-0------------------------
---------------------------2-0----------0---------------------
-----------------------------0------------0---------------0---
------------------------------------------------------2-------
----------------------------------------------3-3-3-3---------
Note:This second guitar is slightly adlibbed. This is what is
     generally played.

Verse:
----------------------------------------------------------
----------------------------------------------------------
-2----x-2------5----x-5---------------------2----x-2------
-2----x-2------5----x-5------5----x-5-------2----x-2------
-0----x-0------3----x-3------5----x-5-------0----x-0------
-----------------------------3----x-5---------------------
There are a few parts where the guitar follows
the bass like this:
----------------------------------------------------------
----------------------------------------------------------
-2---------2-4-5-------4-2-4----------------2-------------
-2---------2-4-5-------4-2-4-5--------------2-------------
-0---------0-2-3-------2-0-2-5--------------0-------------
-----------------------------3----------------------------

Bridge:
Strum a 'G' chord.
Comments