Meat Puppets - Predator Chords & Tabs

 

Predator Chords & Tabs

Meat Puppets Chords & Tabs

Version: 1 Type: Tab 0 ratings
1 star 2 stars 3 stars 4 stars 5 stars
comments

Predator Tab

Predator
Album: NO JOKE
Tabbed by: Halvor Wold
Song written by: Kirk Kirkwood
My e-mail: wold.halvor@organizer.net

Intro:
e-----------------------------------------------------------------------
B-----------------------------------------------------------------------
G-----------------------------------------------------------------------
D-7-6-2----2------Four-Times---7-6--------------------------------------
A-7-6-2------2-2-----then-play-7-6--------------------------------------
E-5-4-0------------------------5-4--------------------------------------

Verse:
e-----------------------------------------2-----------------------------
B-------2-----0h2p0-----0-------------------2---------------------------
G-----2---2---------2-----2---------3---------3-------------------------
D---2-------2---------2-----2-----4---4---------4-----------------------
A-0-----------------------------4-------4---------4---------------------
E-----------------------------2---------------------2-------------------

e-----------------------------------------------1-----------------------
B-------1-----0h1p0-----1-----------2-------------2---------------------
G-----0---0---------0-----0-------1---1-------1-----1-------------------
D---2-------2---------2-----2---3-------3---3---------------------------
A-3---------------------------4-----------4-----------------------------
E-----------------------------------------------------------------------
Play that twice then
e-----------------------------------------------------------------------
B-----------------------------------------------------------------------
G-6-6-6---6-6-6-6-6-6-6-6-----------------------------------------------
D-6-6-6---6-6-6-6-6-6-6-6-----------------------------------------------
A-4-4-4---4-4-4-4-4-4-4-4-----------------------------------------------
E-----------------------------------------------------------------------

Chorus:
e-----------------------------------------------------------------------
B-------------------------------2-----------2---------------------------
G-------1-----------1-------4-----4-----4-----4-------------------------
D---2-----2-----2-----2-------4-----4-----4-----4-----------------------
A-----2-----2-----2-----2-2-----------2---------------------------------
E-0-----------0---------------------------------------------------------
[ Tab from: http://www.guitartabs.cc/tabs/m/meat_puppets/predator_tab.html ]
e-------0-----------0---------------------------------------------------
B---3-----3-----3-----3---------2-----------2---------------------------
G-----2-----2-----2-----2---2-----2-----2-----2-------------------------
D-0-----------0---------------2-----2-----2-----2-----------------------
A-------------------------0-----------0---------------------------------
E-----------------------------------------------------------------------
Play that twice then
e-----------------------------------------------------------------------
B-----------------------------------------------------------------------
G-----------------------------------------------------------------------
D-2---2-2-2---2-2-2-----------------------------------------------------
A-2---2-2-2---2-2-2-----------------------------------------------------
E-0---0-0-0---0-0-0-----------------------------------------------------

Rhythm behind Solo:
e----------------------------------------------then---------------------
B----------------------------------------------go-----------------------
G-------------------Play-----------------------back---------------------
D-2-3-4---7---7-6-2-that--2-3-4---7---10---12--to-before----------------
A-2-3-4---7---7-6-2-twice-2-3-4---7---10---12---------------------------
E-0-1-2---5---5-4-0-then--0-1-2---5---8----10---------------------------
End on an E chord

Solo:
e-----0-----------------------------------------------------------------
B-----5-----------------------------------------------------------------
G-4/6---6-6\4-2h4-4/6\4-4~---------2-4-4/6\4-2--------------------------
D------------------------------2-4--------------------------------------
A--------------------------2-4------------------------------------------
E-----------------------------------------------------------------------

e-----0-----------------------------------------------------------------
B-----5-----------------------------------------------------------------
G-4/6---6-6\4-2-4/6-4~---------2-4/6\4-2--------------------------------
D--------------------------2-4------------------------------------------
A----------------------2-4----------------------------------------------
E-----------------------------------------------------------------------

e-----0-----------------------------------------------------------------
B-----5-----------------------------------------------------------------
G-4/6---6-4-2-4b5r4-2h4-2---------2-------------------------------------
D-----------------------------2-4---------------------------------------
A-------------------------2-4-------------------------------------------
E-----------------------------------------------------------------------

e-----0-----------------------------------------------------------------
B-----5-----------------------------------------------------------------
G-4/6---6\4-2-2-4-4/6\4-4-----------------------------------------------
D-----------------------------------------------------------------------
A-----------------------------------------------------------------------
E-----------------------------------------------------------------------

e-----------------------------0-----------------------------------------
B-----------------------------5-----------------------------------------
G---------2-4-4/6\4-2-4---4/6---6\4-2~~~~-------------------------------
D-----2-4---------------------------------------------------------------
A-2-4-------------------------------------------------------------------
E-----------------------------------------------------------------------
Comments