Meat Puppets - Pleateu Chords & Tabs

 

Pleateu Chords & Tabs

Meat Puppets Chords & Tabs

Version: 2 Type: Tab 0 ratings
1 star 2 stars 3 stars 4 stars 5 stars
comments

Pleateu Tab

Plateau
Tune Down 1/2 a step
intro
e--3------6------3------6------3------6------1-------------------------------|
b-----------------------------------------------------1----------------------|
g-----------------------------------------------0---------0------------------|
d------0------0------0------0------0------0----------------------------------|
a----2------5------2------5------2------5------------------------------------|
e--3------6------3------6------3------6------1-----1-------------------------|
 play that 3 times, then
e--3------6--------------------3--------------------1------------------------|
b-----------------------6-------------6------1-------------------------------|
g------------------------------------------------0------0--------------------|
d------0------0------0------0------0------0----------------------------------|
a----2------5------2------5------2------5------------------------------------|
e--3------6------3------6------3------6------1-------------------------------|
 before chorus
e--4-------------------------------------------------------------------------|
b----------4-----------------------------------------------------------------|
g----0-----------------------------------------------------------------------|
d----------------------------------------------------------------------------|
a-------3--------------------------------------------------------------------|
e--4-------------------------------------------------------------------------|
 chorus
e--1/3----------3------------------------------------------------------------|
b--1/3--------3-------------3------3----------------------3------------------|
g-------0-------------------3------3----------------------3------------------|
d------------------3--3-----3------3---------/3--------3-----3---------------|
a-----------------------1--------------------------1------------1------------|
e---------3--------------------1-------3--3----------------------------------|
[ Tab from: http://www.guitartabs.cc/tabs/m/meat_puppets/pleateu_tab_ver_2.html ]
e------------3----------------------------------3----------------------------|
b---------------3-----------3------3---3------------3----------3-------------|
g--------0------------------3------3--------0------------------3-------------|
d-----0-------------3-------3------3------0------------3-------3-------------|
a-----------------------1----------------------------------1-----------------|
e--3----------------------------1------3--------------------------1----------|
 pre outro
e--4------------------------4------------6-----------------------------6\----|
b---------4-----------4----------------------------6---------------6---------|
g---------------0------------------0----------------------0------------------|
d------------0-----------------------------------------0---------------------|
a------3-----------3------------3--------------5---------------5-------------|
e--4---------------------4---------------6-----------------------------------|
outro guitar 1
e------------------------------------------------------------------------0---|
b------2-------0----------3--------0--1------2-------0--------0--------1-----|
g----2-------2---2------2--------2---------2-------2---2----2--------2-------|
d--2-------2----------0--------0---------2-------2--------3--------0---------|
a--------0-------------------3-----------------0-----------------3-----------|
e----------------------------------------------------------------------------|
 guitar 2
e--------0--------------2----------0-----------0-----------------------0-----|
b------2-----2------------2--------1---------2----2---------1-0--------1-----|
g----2---------2-------------------0-------2--------2-------2-2--------0-----|
d--2-------------2----0--------0-2-------2------------2---3--------0-2-------|
a----------------------------3-----------------------------------3-----------|
e----------------------------------------------------------------------------|
 play that 4 times and end with
e--0-------------------------------------------------------------------------|
b--0-------------------------------------------------------------------------|
g--2-------------------------------------------------------------------------|
d--2-------------------------------------------------------------------------|
a--0-------------------------------------------------------------------------|
e----------------------------------------------------------------------------|
Comments