Meat Puppets - Plateau Chords & Tabs

 

Plateau Chords & Tabs

Meat Puppets Chords & Tabs

Version: 1 Type: Tab 0 ratings
1 star 2 stars 3 stars 4 stars 5 stars
comments

Plateau Tab

   
Band      Meat Puppets
Song      Plateau
Album     II


verse:  (play without a pick)

1: 3-6-3-6-3-6-1-----
2: --------------1---
3: -------------0--0-
4: ------------------
5: 2-5-4-5-4-5-------
6: 3-6-3-6-3-6-------

chorus:
[ Tab from: http://www.guitartabs.cc/tabs/m/meat_puppets/plateau_tab.html ]
1: ------------------------------------0-1--   
2: 0-1-0-1-2-3-0-1-2-3---------0-1-2-3------
3: --------------------0-1-2-3--------------
play twice second time end with:

1: 0-1-2-3----

outro:
   
   A  Asus2C   F7
1: --------------0---
2: --2---0---1----1--
3: -2-2---2---0-2----
4: 2----2---2--3-----
5: ----0---3---------
6: ------------------

play a couple times then end by strumming F7

Comments