Meat Puppets - Pieces Of Me Chords & Tabs

 

Pieces Of Me Chords & Tabs

Meat Puppets Chords & Tabs

Version: 2 Type: Tab 0 ratings
1 star 2 stars 3 stars 4 stars 5 stars
comments

Pieces Of Me Tab

Pieces of Me
Album: Golden lies
Tabbed by: Halvor Wold
Song written by: Kirk Kirkwood
My e-mail: wold.halvor@organizer.net

Intro:
-------------------0-----------------|
-3--------1-----------------3--------|
-------------------------------------|
-------------------------------------|
-------------------------------------|
-------------------------------------|

----------------0-----------|
--------------3---3-------3-| Repeat
------------2-------2---2---|
----3-----0-----------0-----|
-0-----3--------------------|
----------------------------|

Verse:
-------0-----------------------3^1-0--------0-----|
-----3---3---------1^0-------3------------3---3---|
---2-------2-----0-----0---0-----------22-------2-|
-0-------------2---------0-----------0------------|
-------------3------------------------------------|
--------------------------------------------------|
[ Tab from: http://www.guitartabs.cc/tabs/m/meat_puppets/pieces_of_me_tab_ver_2.html ]
Chorus:
-------1-----------3-----------1^0---0------------|
---------1-----------3-------3-----3---33---3-----|
-----3-----3-----5-----5---2--------------2---2---|
---3-----------5---------0----------------------0-|
-1-----------3------------------------------------|
--------------------------------------------------|

-------1-----------3------------------------------|
---------1-----------3-------3-1^3-3-3/55-5-5\3-3-|
-----3-----3-----5-----5---2-2-0^2-2-2----2-2---2-|
---3-----------5---------0------------------------|
-1-----------3------------------------------------|
--------------------------------------------------|

-------1-----------3-----------1------------0-----|
---------1-----------3-----------1------------1---|
-----3-----3-----5-----5-----3-----3------2-----2-|
---3-----------5-----------3-----------22---------|
-1-----------3-----------1-----------0------------|
--------------------------------------------------|

-------1-----------------------3------------------|
---------1---1-------------------3---3------------|
-----3-----3---3---3---------5-----5---55---5-----|
---3-------------3---3-----5--------------5---5---|
-1---------------------1-3----------------------3-|
--------------------------------------------------|

That`s about it...
Comments