Meat Puppets - Nothing Chords & Tabs

 

Nothing Chords & Tabs

Meat Puppets Chords & Tabs

Version: 3 Type: Tab 0 ratings
1 star 2 stars 3 stars 4 stars 5 stars
comments

Nothing Tab

Nothing
Album: NO JOKE
Tabbed by: Halvor Wold
Song written by: Kirk Kirkwood
My e-mail: wold.halvor@organizer.net


Intro:
------------------------------------------------|
------------------------------------------------|
--7---7---7--7---7---7--3---3---3--3---33---3---|
--7---7---7--7---7---7--3---3---3--3---33---3---|
--5---5---5--5---5---5--1---1---1--1---11---1---|
------------------------------------------------|

Main Riff:
------------------|
------------------|
--------7-5-------|
------------6-7---|
--5---5---------6-|
------------------|
[ Tab from: http://www.guitartabs.cc/tabs/m/meat_puppets/nothing_tab_ver_3.html ]
Pre-Chorus:
------------------------------------------------------|
------5---5--------5---5--------3---3-5-------3---3-5-|
--7---7---7-7--7---7---7-7--5---5---5-5---5---5---5-5-|
--7---7---7-7--7---7---7-7--5---5---5-5---5---5---5-5-|
--5---5---5-5--5---5---5-5--3---3---3-3---3---3---3-3-|
------------------------------------------------------|

------------------------------------------------------|
------5---5--------5---5--------1---1---------1---1---|
--7---7---7-7--7---7---7-7--3---3---3-3---3---3---3-3-|
--7---7---7-7--7---7---7-7--3---3---3-3---3---3---3-3-|
--5---5---5-5--5---5---5-5--1---1---1-1---1---1---1-1-|
------------------------------------------------------|

Chorus:
-----------------------------------------------------------|
-----------------------------------------------------------|
--5------7-------------3------5--------------3------8------|
--5------7------6------3------5------6-------3------8------|
--3------5------6------1------3------6-------1------6------|
----------------4--------------------4---------------------|

Variation of Main Riff: Played near the end of the song
------------------|
------------------|
--------7-5-6-7-8-|
------------------|
--5---5-----------|
------------------|
Comments