Meat Puppets - Lamp Chords & Tabs

 

Lamp Chords & Tabs

Meat Puppets Chords & Tabs

Version: 1 Type: Tab 0 ratings
1 star 2 stars 3 stars 4 stars 5 stars
comments

Lamp Tab

##################################################################################
# This file is the author's own work and represents their interpretation of the  #
# song. You may only use this file for private study, scholarship, or research.  #
##################################################################################

Lamp
Written by Curt Kirkwood
Tabbed by: Halvor Wold
e-mail: wold.halvor@organizer.net
album: Golden lies

The main riff goes like this:

GTR I:       GTR II: 
---          --7-
---          --7- Strum this chord a llot
---          --9-
-2-          --9-
-2-          --7-
-0-          --0-

Because the guitar part is so simple,
I sometimes play the bass part, which
is as follows:

--------------------------------------------
------------------------------------------0-
----------------0--2--------------0----2----
-0------2---3---------0---2---3-------------

Verse

Chorus:

[ Tab from: http://www.guitartabs.cc/tabs/m/meat_puppets/lamp_tab.html ]
-------
-------
-------
-----0-
-0^2---
-------

  1st Time:          2nd Time:
------------       ------------
------------       ------------
------------       ------------
-2-3---3-2--       -3-2---2-3--
-2-3---3-2--       -3-2---2-3--
-0-1---1-0--       -1-0---0-1--

Chorus Lead Guitar:
This follows a section of the vocal part.

-------------------
-7--8-7------------
---------9--7---5--
-------------------
-------------------
-------------------

Second verse:
Same chords


There are two short little lead parts
during the last verse. They go like
this:
--------------------     -9---------9----------9---------9---9----
--------------------     ---10---10----10---10---10-10------------
-9\7-------11b12r11- and ------9----------9------------9---9---9--
--------------------     -----------------------------------------
--------------------     -----------------------------------------
--------------------     -----------------------------------------
Comments