Meat Puppets - Inflatable Chords & Tabs

 

Inflatable Chords & Tabs

Meat Puppets Chords & Tabs

Version: 2 Type: Tab 0 ratings
1 star 2 stars 3 stars 4 stars 5 stars
comments

Inflatable Tab

Inflatable
Album: No joke
Tabbed by: Halvor Wold
Song written by: Kirk Kirkwood
My e-mail: wold.halvor@organizer.net

Intro:
e-----------------------------------------------------------------------|
B-----------------------------------------------------------------------|
G--------------4--------------------------------------------------------|
D-2---2-5---5--4--------------------------------------------------------|
A-2---2-5---5--2--------------------------------------------------------|
E-0---0-3---3-----------------------------------------------------------|

Lead Bit:
e-----------------------------------------------------------------------|
B-----------------------------------------------------------------------|
G-6---7-6--4--2-4-4-2-4-6---7-6--4-2-1----------------------------------|
D-----------------------------------------------------------------------|
A-----------------------------------------------------------------------|
E-----------------------------------------------------------------------|
Guitar Two plays the Chorus

Verse:
e-----------------------------------------------------------------------|
B-----------------------------------------------------------------------|
G-----------------------------------------------------------------------|
D--------7-------9-8-7-----------7-----------7--------------------------|
A-5/7-7--5-7-7---7-6-5----5/7-7--5-7-7---5---5--------------------------|
E-3/5-5----5-5------------3/5-5----5-5---3------------------------------|
[ Tab from: http://www.guitartabs.cc/tabs/m/meat_puppets/inflatable_tab_ver_2.html ]
e-----------------------------------------------------------------------|
B-----------------------------------------------------------------------|
G-----------------------------------------------------------------------|
D--------7-------7\5-7/9-5-------------7--------------------------------|
A-5/7-7--5-7-7---5\3-5/7-3--7---5/7-7--5-7-7---2---5--------------------|
E-3/5-5----5-5--------------5---3/5-5----5-5---0---3--------------------|

Chorus:
e-----------------------------------------------------------------------|
B-----------------------------------------------------------------------|
G-----------------------------------------------------------------------|
D---------7-------------------------------7-----------------------------|
A-7-7-7---5-7-7---2-2-2---5-5-5---7-7-7---5-7-7---2-2-2---2-2-2---------|
E-5-5-5-----5-5---0-0-0---3-3-3---5-5-5-----5-5---0-0-0---0-0-0---------|

Bridge:
e-----------------------------------------------------------------------|
B-----------------------------------------------------------------------|
G-----------------------------------------------------------------------|
D-5-7---7-----5-7-----Play-that--------------5---------5----------------|
A-3-5---5-5---3-5---5----twice-then--3-5---5-3---3-5---3----------------|
E---------3---------3----------------1-3---3-----1-3--------------------|

e-----------------------------------------------------------------------|
B-----------------------------------------------------------------------|
G-----------------------------------------------------------------------|
D---------5-------------------------------------------------------------|
A-3-5---5-3---3--5--7---------------------------------------------------|
E-1-3---3-----1--3--5---------------------------------------------------|

Second Lead Bit:
e---------------------------------------------------5-5---5b6r5---------|
B--------------------------------------------5--5-5---------------------|
G-6---7-6--4-2-4-4-2-4-2----------6---7-6-------------------------------|
D--------------------------2-4-5----------------------------------------|
A-----------------------------------------------------------------------|
E-----------------------------------------------------------------------|
Comments