Meat Puppets - I Quit Chords & Tabs

 

I Quit Chords & Tabs

Meat Puppets Chords & Tabs

Version: 1 Type: Tab 0 ratings
1 star 2 stars 3 stars 4 stars 5 stars
comments

I Quit Tab

I Quit
Written by Curt Kirkwood
Tabbed by: Halvor Wold
Album: Golden lies
E-mail: wold.halvor@organizer.net


Main Riff:
-------------
-------------
-7--7-7/9--7-
-7--7-7/9--7-
-5--5-5/7--5-
-------------

Verse:
----0-----------0-----------0------------0--------
----0-----------1-----------3------------1--------
----0-----------0-----------2------------0--------
----2---------2----2-0^2-0--0---------22----2-0^2-
----2------3-----------------------3--------------
-0--0---------------------------------------------
[ Tab from: http://www.guitartabs.cc/tabs/m/meat_puppets/i_quit_tab.html ]
Third verse:
------------------------------------------
------------------------------------------
-9-9-9-----5-5-5-----7-7-7-----5-5-5------
-9-9-9-----5-5-5-----7-7-7-----5-5-5------
-7-7-7-----3-3-3-----5-5-5-----3-3-3------
------------------------------------------

Chorus:
----3------0----0-----------0------0--------------
----0------3--3----3--------0------1----0^1^0-----
----0------2---------2------0------0----------0---
----0------0-----------0----2------2------------0-
----2-----------------------2------3--------------
-3--3--------------------0--0---------------------

Lead:
--------------------------------------------------------------------
-3--------/5----------/7-8---7-5\3-3----/10-10----5---7-8---7-5\3-3-
--------------------------------------------------------------------
--------------------------------------------------------------------
--------------------------------------------------------------------
--------------------------------------------------------------------

Please e-mail me for more Meat Puppets tabs!!!

Comments