Meat Puppets - Forbidden Places Chords & Tabs

 

Forbidden Places Chords & Tabs

Meat Puppets Chords & Tabs

Version: 1 Type: Tab 0 ratings
1 star 2 stars 3 stars 4 stars 5 stars
comments

Forbidden Places Tab

FORBIDDEN PLACES
Tabben by: Halvor Wold
Album: Forbidden places
Written by: Curt Kirkwood
E-mail: wold.halvor@organizer.net


e-------------------------------------
B-------------------------------------
G-------------------------------------
D--2-5---7-7--7p5---------7p5---------
A--2-5---7-7--5---5h7-7---5---5h7-7---
E--0-3---5-5------5---5-------5---5---

VERSE:
G--------------
D--7p5---------
A--5---5h7-7---
E------5---5--- x21

CHORUS:
G-----------------7----7---------------------------9---
D--7/9--2----2-5--7----7-5--7----7-9--10---12---12-9---
A--7/9--2----2-5--5----5-5--7----7-9--10---12---12-7---
E--5/7--0----0-3---------3--5----5-7---8---10---10-----

G-------------------------------
D--7-7--7p5---------7p5---------
A--7-7--5---5h7-7---5---5h7-7---
E--5-5------5---5-------5---5---

VERSE:
G--------------
D--7p5---------
A--5---5h7-7---
E------5---5--- x21
[ Tab from: http://www.guitartabs.cc/tabs/m/meat_puppets/forbidden_places_tab.html ]
CHORUS:
G-----------------7----7---------------------------9---
D--7/9--2----2-5--7----7-5--7----7-9--10---12---12-9---
A--7/9--2----2-5--5----5-5--7----7-9--10---12---12-7---
E--5/7--0----0-3---------3--5----5-7---8---10---10-----


G----------------------
D--5/5h7-7---5/5h7-7---
A--3/5---5---3/5---5---
E---------------------- x4

(During the solo):

G---9---7---9---7---
D---9---7---9---7---
A---7---5---7---5---
E-------------------

e--------------------------------
B--------------------------------
G--5-4---4-------5-4---4---------
D------7---7-5-------7---7-5-----
A----------------------------5---
E-------------------------------- x2

VERSE:
G--------------
D--7p5---------
A--5---5h7-7---
E------5---5--- x16

CHORUS:
G-----------------7----7---------------------------9---
D--7/9--2----2-5--7----7-5--7----7-9--10---12---12-9---
A--7/9--2----2-5--5----5-5--7----7-9--10---12---12-7---
E--5/7--0----0-3---------3--5----5-7---8---10---10----- x4

VERSE:
G--------------
D--7p5---------
A--5---5h7-7---
E------5---5--- x33

(17-24):

G-----------------
D--5-4----4-------
A------7----7-5---
E----------------- x8

G--------------------------------
D--5-4---4-------5-4---4---------
A------7---7-5-------7---7-5-----
E----------------------------5--- x4

Ending note: A
Comments