Meat Puppets - For Free Chords & Tabs

 

For Free Chords & Tabs

Meat Puppets Chords & Tabs

Version: 2 Type: Tab 0 ratings
1 star 2 stars 3 stars 4 stars 5 stars
comments

For Free Tab

For Free
Album: NO JOKE
Tabbed by: Halvor Wold
Song written by: Kirk Kirkwood
My e-mail: wold.halvor@organizer.net

Intro:
e-----------------------------------------------------------------------|
B-----------------------------------------------------------------------|
G-----0-2---0---------0---------------0-2---0---------0-----------------|
D---4---------4-----0---0-----------4---------4-----0---0-0h2p0---0-2---|
A-5-------------5-3-------3-0-2-3-5-------------5-3-------------3-------|
E-----------------------------------------------------------------------|

e-----------------------------------------------------------------------|
B-------------------------------------------------1---------------------|
G-----0-2---0---------0---------------0-2---0-----0---------------------|
D---4---------4-----0---0-----------4---------4---2---------------------|
A-5-------------5-3-------3-0-2-3-5-------------5-3---------------------|
E-----------------------------------------------------------------------|

Verse:
e-----------------------------------------------------------------------|
B-----------------------------------------------------------------------|
G-8\7---7-7-7---8\7---7-7-7-------0-2---0---------0---------------------|
D-8\7---7-7-7---8\7---7-7-7-----4---------4-----0---0-------------------|
A-6\5---5-5-5---6\5---5-5-5---5-------------5-3-------3b--0-------------|
E-----------------------------------------------------------------------|
Play that twice then
[ Tab from: http://www.guitartabs.cc/tabs/m/meat_puppets/for_free_tab_ver_2.html ]
e-------3-----------3---------3---------5-----------5---------5---------|
B---------3-----------3-------------------5-----------5-----------------|
G-----5-----5-----5-----5-------------7-----7-----7-----7---------------|
D---5-----------5-----------5-------7-----------7-----------7-----------|
A-3-----------3-----------3-------5-----------5-----------5-------------|
E-----------------------------------------------------------------------|
Play that twice

Chorus:
e-----------------------------------------------------------------------|
B-----------------------------------------------------------------------|
G-9/11--11-11-11--12\11--11-11-11--6/7--7-7-7--6/7--7-7-7---------------|
D-9/11--11-11-11--12\11--11-11-11--6/7--7-7-7--6/7--7-7-7---------------|
A-7/9---9--9--9---10\9---9--9--9---4/5--5-5-5--4/5--5-5-5---------------|
E-----------------------------------------------------------------------|

Bridge:
e-----------------0-----------------------------------------------------|
B-----------0-1-3---3-1-0-1-0---0-1-0h1p0---0---------------------------|
G-------0-2-------------------2-----------2---2-0-----------------------|
D-0-2-4-------------------------------------------4-2-0-----0-0-0-0-----|
A-----------------------------------------------------------------------|
E-----------------------------------------------------------------------|
Play that twice

Ending:
e-----------------------------------------------------------------------|
B-----------------------------------------------------------------------|
G-8\7-7-7-7-7-7-7-7---8\7-7-7-7-7-7-7-7---7-----------------------------|
D-8\7-7-7-7-7-7-7-7---8\7-7-7-7-7-7-7-7---7-----------------------------|
A-6\5-5-5-5-5-5-5-5---6\5-5-5-5-5-5-5-5---5-----------------------------|
E-----------------------------------------------------------------------|
Play that several times
Comments