Meat Puppets - Comin' Down Chords & Tabs

 

Comin' Down Chords & Tabs

Meat Puppets Chords & Tabs

Version: 1 Type: Tab 0 ratings
1 star 2 stars 3 stars 4 stars 5 stars
comments

Comin' Down Tab

   
#----------------------------------PLEASE NOTE---------------------------------#
#This file is the author's own work and represents their interpretation of the #
#song. You may only use this file for private study, scholarship, or research. #
#------------------------------------------------------------------------------##
The Meat Puppets
Comin' Down
Tabber: Uunknown


Intro:
e------------------2-------2-------3----------------------------
B------------------3-------3-------3----------------------------
G------------------2-------2-------2----------------------------
D---------0------0-------0-------0-------0-------0--------------
A-----0h2----0h2-----0-------0-2-----0-------0-2-----0h2--------
E-3-3----------------------------------------------------3------


Solo Fill 1:
e-------------------------------------------------------------
B-------------------------------------------------------------
G-12-12-12-12-------------------------------------------------
D-12-12-12-12--9----------------------------------------------
A----------------10/12-12-12-10-10h12-10----------------------
E----------------------------------------10-12-12-12-10-10-12-

e-------------------------------------------------------------
B-------------------------------------------------------------
G--------------------------12---------------------------------
D--------------------------12---------------------------------
A-10-12-12/14\12-10h12-10-------------------------------------
E-------------------------------------------------------------

      

Repeat Chorus

Solo Fill 2:
e-10---10-10-10\8--7-7-7/8----8----8--8-\7---7-7/8----8----8--8-\7-
B-12---12-12-12\10-8-8-8/10---10---10-10\8---8-8/10---10---10-10\8-
G------------------------------------------9-----------------------
D------------------------------------------------------------------
A------------------------------------------------------------------
E------------------------------------------------------------------

e---7-7/10-10-10-9--7----7\----------------------------------------
B---8-8/12-12-12-10-8----8\----------------------------------------
G-9----------------------------------------------------------------
D------------------------------------------------------------------
A------------------------------------------------------------------
E------------------------------------------------------------------

Repeat Verse 1

End Solo:
e-------------------------------------------------------------------
B-------------------------------------------------------------------
G-------12---------------------12-----------------------------------
D-12/14----14\12-12-12/14---14----14\12--12--12/14--12--9-----------
A----------------------------------------------------------12-------
E-------------------------------------------------------------------

e-------------------------------------------------------------------
B-------------------------------------------------------------------
G-----------------12-12-------12-12-12-------12-12-------12-12-12---
D-----------12h14-------12h14----------12h14-------12h14------------
A-10--10-10---------------------------------------------------------
E-------------------------------------------------------------------
[ Tab from: http://www.guitartabs.cc/tabs/m/meat_puppets/comin_down_tab.html ]
e----------------------------------------------7/10-10-10-8--7------
B----------------------------------------------8/12-12-12-10-8------
G-------12-------12-12-12-------12-12-12----------------------------
D-12h14----12h14----------12h14----------12h14----------------------
A-------------------------------------------------------------------
E-------------------------------------------------------------------

e-7-8-/10-10-10-10\8--7-7-7/8--8--8--8--7-7-8--8--8--8--7-7-8--8--7-
B-8-10/12-12-12-12\10-8-8-8/10-10-10-10-8-8-10-10-10-10-8-8-10-10-8-
G-------------------------------------------------------------------
D-------------------------------------------------------------------
A-------------------------------------------------------------------
E-------------------------------------------------------------------

e-7-8-/10-10-10-10\8--7-7-7/8--8--8--8--7-7-8--8--8--8--7-8--10-----
B-8-10/12-12-12-12\10-8-8-8/10-10-10-10-8-8-10-10-10-10-8-10-12-----
G-------------------------------------------------------------------
D-------------------------------------------------------------------
A-------------------------------------------------------------------
E-------------------------------------------------------------------

e-7/8--8--8--7-7----------------------------------------------------
B-8/10-10-10-8-8----------------------------------------------------
G-------------------------------------------------------------------
D-------------------------------------------------------------------
A-------------------------------------------------------------------
E-------------------------------------------------------------------

e-7-8--8-/10-10-10-12-10-8--7-8--8--7-8--7-7-8--8--8--7-7-8-/10-10--
B-8-10-10/12-12-12-12-12-10-8-10-10-8-10-8-8-10-10-10-8-8-10/12-12--
G-------------------------------------------------------------------
D-------------------------------------------------------------------
A-------------------------------------------------------------------
E-------------------------------------------------------------------

e-10-8--7-----------------------------------------------------------
B-12-10-8-----------------------------------------------------------
G-------------------------------------------------------------------
D-------------------------------------------------------------------
A-------------------------------------------------------------------
E-------------------------------------------------------------------

e-7-8--10-10-10-12-10-8--7-8--8--8--8--7-----7----------------------
B-8-10-12-12-12-12-12-10-8-10-10-10-10-8-----8----------------------
G----------------------------------------7h9------------------------
D-------------------------------------------------------------------
A-------------------------------------------------------------------
E-------------------------------------------------------------------

e-8--8--8--8--7-----7-8--8--8--7-7---3------------------------------
B-10-10-10-10-8-----8-10-10-10-8-8---3------------------------------
G---------------7h9------------------0------------------------------
D------------------------------------0------------------------------
A------------------------------------2------------------------------
E------------------------------------3------------------------------

Repeat the first Verse acappella
Comments