Meat Puppets - Cobbler Chords & Tabs

 

Cobbler Chords & Tabs

Meat Puppets Chords & Tabs

Version: 1 Type: Tab 0 ratings
1 star 2 stars 3 stars 4 stars 5 stars
comments

Cobbler Tab

   
##################################################################################
# This file is the author's own work and represents their interpretation of the  #
# song. You may only use this file for private study, scholarship, or research.  #
##################################################################################

Cobbler
Album: NO JOKE
Tabbed by: Halvor Wold
Song written by: Kirk Kirkwood
My e-mail: wold.halvor@organizer.net


[ Tab from: http://www.guitartabs.cc/tabs/m/meat_puppets/cobbler_tab.html ]
Intro:
e-----------------------------------------------------------
B-----------------------------------------------------------
G-------7-7-------7---7-7-------5-----5-5-------------5-----
D-5/7-7-7-7-7-7---7-7-7-7-7-7---5-5-5-5-5-5-5---3-3/5-5-5-5-
A-5/7-7-5-5-7-7---5-7-5-5-7-7---3-5-5-3-3-5-5---3-3/5-3-5-5-
E-3/5-5-----5-5-----5-----5-5-----3-3-----3-3---1-1/3---3-3-

Verse:

Mostly Power Chords
===================

That's the bass progression.
The guitar plays this:
   F         C          F         C          F        G          D
e-----5---------0----------5---------0----------5--------7----------
B--------6---------1----------6---------1----------6--------8-------
G--5---------0----------5---------0----------5--------7----------7--
D----------------------------------------------------------------7--
A----------------------------------------------------------------5--
E-------------------------------------------------------------------

Repeat Intro
============

Comments