Meat Puppets - Chemical Garden Chords & Tabs

 

Chemical Garden Chords & Tabs

Meat Puppets Chords & Tabs

Version: 1 Type: Tab 0 ratings
1 star 2 stars 3 stars 4 stars 5 stars
comments

Chemical Garden Tab

   
##################################################################################
# This file is the author's own work and represents their interpretation of the  #
# song. You may only use this file for private study, scholarship, or research.  #
##################################################################################

Chemical Garden 
Album: NO JOKE
Tabbed by: Halvor Wold
Song written by: Kirk Kirkwood
My e-mail: wold.halvor@organizer.net

Chords Used:
D xx0232
A x02220
G 320033
C x32010

Intro:
                    D                        A
e-----------------------------------------------------------------------
B-----------10----------------------------------------------------------
G----7-9/11----9\7--7-----------7-9/11\9-7/9-----6----6h7p6-------------
D-/7----------------7--------/7--------------7------7-------7-----------
A-----------------------------------------------------------------------
E-----------------------------------------------------------------------
               G                      D             A
e-----------------------------------------------------------------------
B------7--------------8-----------8-7-7---7---7h8p7---------------------
G----7---9-7\6-0--------7------/7-----7-----7---------------------------
D-/7-----------0----------9-9-----------------------7-------------------
A---------------------------------------------------7-------------------
E-----------------------------------------------------------------------

Verse 1: D A C G D
==================

Chorus:  G  A 
==============


Guitar Two plays this during the chorus:
e---7-----7-----7---7-----7-----7---9------9------9---9------9------9---
B-----8-----8---------8-----8---------10-----10---------10-----10-------
G-7-----7-----7---------7-----7---9------9------9----------9------9-----
D-----------------------------------------------------------------------
A-----------------------------------------------------------------------
E-----------------------------------------------------------------------


Verse 2:Same chords
===================

Bridge: C G D 
=============


During the bridge:
e-----------------------------------------------------------------------
B------5---------------------7---------7--------------------------------
G--------5--------4------------7---------7------------------------------
D-/5----------------5---/7----------------------------------------------
A------------/5---------------------------------------------------------
E-----------------------------------------------------------------------

e-----------------------------------------------------------------------
B------5---------------------7---7h8p7----------------------------------
G--------5--------4------------7-------7--------------------------------
D-/5----------------5---/7----------------------------------------------
A------------/5---------------------------------------------------------
E-----------------------------------------------------------------------
[ Tab from: http://www.guitartabs.cc/tabs/m/meat_puppets/chemical_garden_tab.html ]
Solo 1:
e-----------------------------------------------------------------------
B-----------10------------3---------------------------------------------
G----7-9/11----9\7-7--\2----2------7-9/11\9-7/9-----6----6h7p6----------
D-/7---------------7------------/7--------------7------7-------7--------
A-----------------------------------------------------------------------
E-----------------------------------------------------------------------

e-----------------------------------------------------------------------
B------7---------------8----------8-7-7--------7h8p7--------------------
G----7---9-7\6-0---------7------7-----7------7--------------------------
D-/7-----------0-----------9-9-----------------------7------------------
A----------------------------------------------------7------------------
E-----------------------------------------------------------------------

e-----------------------------------------------------------------------
B-----------10---------15----12----10-----------------------------------
G----7-9/11----11\9-7-----14----11----9\7-----7---9\7-------------------
D-/7--------------------------------------7-9---9-----9\4-7-7-9b--r--9--
A-----------------------------------------------------------------------
E-----------------------------------------------------------------------

e-----------------------------------------------------------------------
B-----------------------------------------------------------------------
G-----------------------------------------------------------------------
D-7-9-9-7-----7-7-------------------------------------------------------
A---------7/9-----------------------------------------------------------
E-----------------------------------------------------------------------

Repeat Verse 1
Repeat Chorus 

Solo 2:
e-----------------------------------------------------------------------
B-----------10----------------15-----------------------10---------------
G----7-9/11----9\7-7--9-9/11-----14-11-11\9-9-9---9/11----11\9-9--7-7---
D-/7---------------7----------------------------------------------------
A-----------------------------------------------------------------------
E-----------------------------------------------------------------------

e-----------------------------------------------------------------------
B-----------10----10--10---------------------10--------15---------15----
G----7-9/11----11-11--11--11\9--9-----7-9/11----9\7-7-----14-9/11----14-
D-/9-------------------------------/7---------------7-------------------
A-----------------------------------------------------------------------
E-----------------------------------------------------------------------

e--------------------------------------------------12-------14\12-------
B-----------------------15-------15-------15----------15----------15----
G-11\7-9-9/11--11\9--------14-12----14-12----14-12-------14----------14-
D-----------------------------------------------------------------------
A-----------------------------------------------------------------------
E-----------------------------------------------------------------------

e-----------------------------------------------------------------------
B-------12--------------------------------------------------------------
G-12-14----14-12-12--11-\-7---------------------------------------------
D-----------------------------------------------------------------------
A-----------------------------------------------------------------------
E-----------------------------------------------------------------------

Comments