Meat Puppets - Backwater Chords & Tabs

 

Meat Puppets Chords & Tabs

Version: 1 Type: Tab 1 rating
1 star 2 stars 3 stars 4 stars 5 stars
comments

Backwater Tab

Backwater
Written by Curt Kirkwood
Tabbed by: Halvor Wold
email: wold.halvor@organizer.net
Alum: Too high to die


Intro Lead:
---------------------------------------------------------------------------
------------------------12-------------------------------------------------
-----------9-11^9-11b13----13r11--9-11-99-----------------9--------------9-
------9^11---------------------------------11---11---9^11---11---11-9-11---
-9^11----------------------------------------------------------------------
---------------------------------------------------------------------------

-------------------------------------------
-------------------------------------------
-11b12----11b12r11--9-11-9--11b12r11-9-111-
-------------------------------------------
-------------------------------------------
-------------------------------------------

---------------------------------------------------------------------------
------------------------12-------------------------------------------------
-----------9-11^9-11b13----13r11--9-11-99-----------------9--------------9-
------9^11---------------------------------11---11---9^11---11---11-9-11---
-9^11----------------------------------------------------------------------
---------------------------------------------------------------------------

----------------------------------------------------
----------------------------------------------------
-11b12----11b12r11--9-11-9--11b12r11-9-111-9--------
----------------------------------------------------
----------------------------------------------------
----------------------------------------------------

Verse:
----------------------------------------------------------------------------------
----------------------------------------------------------------------------------
------------------------------------------5-5----5-5-5-5--------------------------
-2-2----2-2-2-2------4-4----4-4-4-4-------5-5----5-5-5-5------2-2----2-2-2-2------
-2-2----2-2-2-2------4-4----4-4-4-4-------3-3----3-3-3-3------2-2----2-2-2-2------
-0-0----0-0-0-0------2-2----2-2-2-2---------------------------0-0----0-0-0-0------
 .      .....        .      .....        .      .....        .      .....

-------------------------------------------------------------------------------0--
-------------------------------------------------------------------------------0--
------------------------------------------5-5----5-5-5-5-----------------------1--
-2-2----2-2-2-2------4-4----4-4-4-4-------5-5----5-5-5-5------2-2----2-2-2-2-2-2--
-2-2----2-2-2-2------4-4----4-4-4-4-------3-3----3-3-3-3------2-2----2-2-2-2-2-2--
-0-0----0-0-0-0------2-2----2-2-2-2---------------------------0-0----0-0-0-0-0-0--
 .      .....        .      .....        .      .....        .      .........
[ Tab from: http://www.guitartabs.cc/tabs/m/meat_puppets/backwater_tab.html ]
Chorus:
--------0-------------------4---------------------3---------------5-------
--------0-------------------5-------------------3---3-----------5---5-----
--------1------------6-6----6-----------------5-------5-------7-------7---
-2-2----2------------6-6----6---------------5-----------5---7-----------7-
-2-2----2------------4-4----4-------------3---------------5---------------
-0-0----0-----------------------------------------------------------------

Bridge:
-----------8---------------------10-----------
---------8---8----------------10----10--------
------10-------10----------12----------112----
---10-------------10----12-----------------12-
-8-------------------10-----------------------
----------------------------------------------

---------0---------------7----------------3---------------5-------
-------0---0-----------7---7-----------33---3-----------5---5-----
-----2-------2-------9-------9-------5--------5-------7-------7---
---2-----------2---9-----------9---5------------5---7-----------7-
-0---------------7---------------3----------------5---------------
------------------------------------------------------------------

---------0---------------7----------------3---------------5-------
-------0---0-----------7---7-----------33---3-----------5---5-----
-----2-------2-------9-------9-------5--------5-------7-------7---
---2-----------2---9-----------9---5------------5---7-----------7-
-0---------------7---------------3----------------5---------------
------------------------------------------------------------------

Middle Solo:
---------------------------------------------------------
---------------------------------------------------------
-----9-11b13--r11-9-11-9---------------99--------------9-
-/11---------------------11--11---9-11----11---11-9-11---
---------------------------------------------------------
---------------------------------------------------------

---------------------------------------------------------
---------------------------------------------------------
-11b12----11b12r11--9-11-9-11b12r11-9-111---9--11/13-----
---------------------------------------------------------
---------------------------------------------------------
---------------------------------------------------------

------12------9--------9----9-12-9---------------------------------
-/12------12--------12---12--------12-9--12-9----------------------
----------------------------------------------11-9-11-9^11^9-------
-------------------------------------------------------------11-11-
-------------------------------------------------------------------
-------------------------------------------------------------------

---------------------------------------------------------
---------------------------------------------------------
-9^11b12----11b12r11--9-11-9-11b12r11-9--11---9----------
---------------------------------------------------------
---------------------------------------------------------
---------------------------------------------------------

I'm too lazy to tab out the solo at the end. Just adlib in E major.
Comments