Meat Puppets - Another Moon Chords & Tabs

 

Another Moon Chords & Tabs

Meat Puppets Chords & Tabs

Version: 2 Type: Tab 0 ratings
1 star 2 stars 3 stars 4 stars 5 stars
comments

Another Moon Tab

   
Another Moon
Tabbed by: Halvor Wold
Written by: Curt Kirkwood
Album: Forbidden places
e-mail: wold.halvor@organizer.net

Intro:
e|----------------------|--------------------|
B|---------10-9---------|-----10-9-----------|
G|---9-7h9-9--9-----7h9-|---9-9--9-----7h9---|
D|---9----------7h9-----|---9------7h9-------|
A|-7--------------------|-7------------------|
E|----------------------|--------------------|
 | --- Play 3 times -------------------------|

Verse:
e|--------|
B|--------|
G|-9--9-9-|
D|-9--9-9-|
A|--------|
E|--------|

Chorus:
e|---------------------------------|
B|-----7-------5-------2-------0---|
G|-------7-------7-------2-------2-|
D|---7-------7-------2-------2-----|
A|-5-------5-------0-------0-------|
E|---------------------------------|

e|---------------------------------|
B|-----5-------3-------7-------5---|
G|-------5-------5-------7-------7-|
D|---5-------5-------7-------7-----|
A|-3-------3-------5-------5-------|
E|---------------------------------|

e|---------------------------------|
B|-----7-------5-------2-------0---|
G|-------7-------7-------2-------2-|
D|---7-------7-------2-------2-----|
A|-5-------5-------0-------0-------|
E|---------------------------------|

e|---------------------------------|
B|-----5-------3-------------------|
G|-------5-------5--7-7-7-----7h9--|
D|---5-------5------7-7-7-7h9------|
A|-3-------3--------5-5-5----------|
E|---------------------------------|

Alternate Chorus:
e|-----------------------------|
B|-7-5-7-5-7-5-7-2-0-2-0-2-0-2-|
G|-----------------------------|
D|-----------------------------|
A|-----------------------------|
E|-----------------------------|
[ Tab from: http://www.guitartabs.cc/tabs/m/meat_puppets/another_moon_tab_ver_2.html ]
e|-----------------------------|
B|-5-3-5-3-5-3-5-7-5-7-5-7-5-7-|
G|-----------------------------|
D|-----------------------------|
A|-----------------------------|
E|-----------------------------|

e|-----------------------------|
B|-7-5-7-5-7-5-7-2-0-2-0-2-0-2-|
G|-----------------------------|
D|-----------------------------|
A|-----------------------------|
E|-----------------------------|

e|-----------------------------|
B|-5-3-5-3-5-3-5---------------|
G|---------------7-7-7-----7h9-|
D|---------------7-7-7-7h9-----|
A|---------------5-5-5---------|
E|-----------------------------|

First Solo:
e|--------------------------------------|
B|--------------------------------------|
G|-9-9/11\9-7h9-11h12p11p9-11h12p11p9-9-|
D|--------------------------------------|
A|--------------------------------------|
E|--------------------------------------|

e|--------------------------------------|
B|--------------------------------------|
G|-9/11\9-7h9-11-12-11-12-14-12-11-9----|
D|--------------------------------------|
A|--------------------------------------|
E|--------------------------------------|

e|----------------------------------------|
B|----------------------------------------|
G|-11-12-11-9-9-7h9-9/11-9-11-12-14-12-14-|
D|----------------------------------------|
A|----------------------------------------|
E|----------------------------------------|

e|------------------------------------|
B|------------------------------------|
G|-14/16-14-12-14-12-11-9-7-----------|
D|--------------------------7-7-7-7h9-|
A|------------------------------------|
E|------------------------------------|

e|--------------------------------------|
B|--------------------------------------|
G|-9-9/11\9-7h9-11h12p11p9-11h12p11p9-9-|
D|--------------------------------------|
A|--------------------------------------|
E|--------------------------------------|
Comments