Me First And The Gimme Gimmes - Wild World Chords & Tabs

 

Wild World Chords & Tabs

Me First And The Gimme Gimmes Chords & Tabs

Version: 1 Type: Bass Tab 0 ratings
1 star 2 stars 3 stars 4 stars 5 stars
comments

Wild World Bass Tab

   
Intro
G-------------------------------------------------------------|
D-------------------------------------------------------------|
A-4-444444---------2-222222----------0-0000000-9-999999-11>---|
E---------2-222222----------0-000000--------------------------|

Verse *-x8
G---------------------------|
D-11*----9*-----------------|
A-----9*----7*-0*-9*-11x18--|
E---------------------------|
[ Tab from: http://www.guitartabs.cc/tabs/m/me_first_and_the_gimme_gimmes/wild_world_btab.html ]
Last time before chours
G-----------------------|
D--------------9*-11*---|
A-4*--2*---0*---------7-|Hold...
E---2*---0*-------------|

Chours-I made it funner by adding guitar part :)
G-----------------------------9-8-6-------------------------------|
D-----------------------------------9-7-6-------------------------|
A-7-777777--2-222222-0-000000-------------9-7-----------------7>--|
E----------------------------------------------7777777-555555-----|

Last time before next verse  /-Slide Up
A-9/-11

Thats mostly it you'll get the rest...Rate!
Comments