Me First And The Gimme Gimmes - What Did I Do For Love Chords & Tabs

 

What Did I Do For Love Chords & Tabs

Me First And The Gimme Gimmes Chords & Tabs

Version: 1 Type: Bass Tab 0 ratings
1 star 2 stars 3 stars 4 stars 5 stars
comments

What Did I Do For Love Bass Tab

INTRO at 00:07 *=play 8X
G-------------------+
D-------------------+
A-5*------3*--1*--3-+
E-----1*------------+

VERSE at 00:14 %=play 12X
G---------------------------------------------------+
D---------------------------------------------------+
A---------555555--------111111-------------1%--3%-3-+
E-111-000--------333333--------111-000-3%-----------+

VERSE2 at 00:35  %=play 12X
G-------------------------------------------------------------------------+
D-------------------------------------------------------------------------+
A---------555555--------111111---------5%------------------333-111-000000-+
E-111-000--------333333--------111-000-----666-444-3333333----------------+
[ Tab from: http://www.guitartabs.cc/tabs/m/me_first_and_the_gimme_gimmes/what_did_i_do_for_love_btab.html ]
BRIDGE
G------------------------------------------------------------+
D------------------------------------------------------------+
A-555-333-111-000-555-333-111------------555555--------333-3-+
E-----------------------------000-555555--------333333-------+

VERSE3/OUTRO *=play 8X
G------------------------------------------------------------------------------>
D------------------------------------------------------------------------------>
A----------------111111-444444----------------44-33-11-66--------------------6->
E-444-333-111111---------------444-333-111111-------------4-4-22-0----4-4-22--->

VERSE3/OUTRO
-------------------------------+
-6*--3*------------------------+
---------6*--4*--6*------------+
---------------------4----4--4-+
Comments