Me First And The Gimme Gimmes - Tomorrow Chords & Tabs

 

Tomorrow Chords & Tabs

Me First And The Gimme Gimmes Chords & Tabs

Version: 1 Type: Tab 0 ratings
1 star 2 stars 3 stars 4 stars 5 stars
comments

Tomorrow Tab

Artist: Me First and the Gimme Gimmes
Song: Tomorrow
Album: Are A Drag
Submitted By: Travis Hines
Email: racebannon420@aol.com

You'll have to figure out the strum patterns yourself.  I included two ends to verse one 
because they both sound good.  THe first one is the one that the song follows, the 
is a slight variation that actually fits the song just as good if not better than the first version.

INTRO(play 2x):
E:-----------------|
B:-----------------|
G:--5-----5-----5--|
D:--5--3--5--5--5--|
A:--3--3--3--5--3--|
E:-----1-----3-----|

VERSE(play 2x):
E:---------------------------|
B:---------------------------|
G:--5--9--10--9--------------|
D:--5--9--10--9--7--5--3--5--|
A:--3--7---8--7--7--5--3--5--|
E:---------------5--3--1--3--|
[ Tab from: http://www.guitartabs.cc/tabs/m/me_first_and_the_gimme_gimmes/tomorrow_tab.html ]
VERSE END VERSION 1:
E:--------------------|
B:--------------------|
G:--5--3-----3--8--3--|
D:--5--3--6--3--8--3--|
A:--3--1--6--1--6--1--|
E:--------4-----------|

VERSE END VERSION 2:
E:---------------------|
B:---------------------|
G:--5--3--------8--12--|
D:--5--3--6--8--8--12--|
A:--3--1--6--8--6--10--|
E:--------4--6---------|

CHORUS(play 2x - on the second time hold the third chord and do not play the last two):
E:-----------------|
B:-----------------|
G:--5-----5-----5--|
D:--5--3--5--5--5--|
A:--3--3--3--5--3--|
E:-----1-----3-----|


INTRO

VERSE
The sun'll come out tomorrow bet your bottom dollar that tomorrow there'll be sun
Just thinking about tomorrow clears away the cobwebs and the sorrow 'til there's none

END VERSE 1/2
When I'm stuck in a day that's gray and lonely I'll stick out my chin and grin and say

VERSE
The sun'll come out tomorrow so you gotta hang on 'til tomorrow come with me

CHORUS
Tomorrow, Tomorrow, I love ya tomorrow you're always a day away
Tomorrow, Tomorrow, I love ya tomorrow you're always a day away
Comments