Me First And The Gimme Gimmes - Sweet Caroline Chords & Tabs

 

Sweet Caroline Chords & Tabs

Me First And The Gimme Gimmes Chords & Tabs

Version: 1 Type: Bass Tab 0 ratings
1 star 2 stars 3 stars 4 stars 5 stars
comments

Sweet Caroline Bass Tab

   
~ MEANS LET RING

Intro and bit in middle of song somewher:

E -5-5-5-5-5-5-5-5-5-5-5-5-5-5-5-5-5-5-5-5-5-

Verse:

G - - - - - - - - - - - - - - - - - - - - - - - - - - - - - - - - - - - - - - - - - -
D - - - - - - - - - - - - - - - - - - - - - - - - - - - - - - - - - - - - - - - - - -
A -5-5-5-5- - - - -5-5-5-5- - -7-7-5-5-4-4- - -7-7-5-5-4-4- - - - - - - - - - - - - -
E - - - - -3-3-3-3- - - - -5-5- - - - - - -5-5- - - - - - - - - - - - - - - - - - - -

Pre Chorus:
[ Tab from: http://www.guitartabs.cc/tabs/m/me_first_and_the_gimme_gimmes/sweet_caroline_btab.html ]
G - - - - - - - - - - - - - - - - - - - - - - - - - - - - - - - - - - - - - - - - - -
D - - - - - - - - 5~-------------7~ - - - - - - - - - - - - - - - - - - - - - - - - -
A -5~---------5~ - - - - - - - - - - - - - - - - - - - - - - - - - - - - - - - - - -
E - - - - - - - - - - - - - - - - - - - - - - - - - - - - - - - - - - - - - - - - - -

Chorus:

G - - - - - - - - - - - - - - - - - - - - - - - - - - - - - - - - - - - - - - - - - -
D - - - - - - - - - - - - - - - - - - - - - - - - - - - - - - - - - - - - - - - - - -
A -5-5-5-5- - - - - - - - - -  - - - -2-4-5--5-5-5-5- - - - - - - - - - - - - - 2-4-5
E - - - - -3-3-3-3-2-3-3-3-3-5-5-5-5- - - - - - - - - -3-3-3-3-2-3-3-3-3-5-5-5-5- - -

Outro:

G - - - - - - - - - - - - - - - - - - - - - - - - - - - - - - - - - - - - - - - - - -
D - - - - - - - - - - - - - - - - - - - - - - - - - - - - - - - - - - - - - - - - - -
A - - -2-------4------------5-5-5-5- - - - - - - - - - - - - - - - - - - - - - - - -
E -5- - - - - - - - - - - - - - - - - - - - - - - - - - - - - - - - - - - - - - - - -
Comments