Me First And The Gimme Gimmes - Summertime Chords & Tabs

 

Summertime Chords & Tabs

Me First And The Gimme Gimmes Chords & Tabs

Version: 1 Type: Tab 0 ratings
1 star 2 stars 3 stars 4 stars 5 stars
comments

Summertime Tab

Intro
---------14=======----------14==-----------------------------------------------------|
------14====14====-------17=====-----------------------------------------------------|
---16===========16----15========-----------------------------------------------------|
17================-16===========-----------------------------------------------------|
-------------------------------------------------------------------------------------|
-------------------------------------------------------------------------------------|

-------------------------------------------------------------------------------------|
-------------------------------------------------------------------------------------|
-------------------------------------------------------------------------------------|
---------------------------------------------------------------------8-----8---12-11-|
9----9---------------9--------9----------7--5--7--5--7--10-9------9----9-9---9-------|
--10--------12-10-12---10--7---------------------------------------------------------|

----------------------------7------------------------------------------------|
----------------------------7-----------------------------12------12---------|
---7----9--7-9--9-7---------7------------------------9-11----9-11----9-7-----|
9-----9-------------9-7-9---9--------------12--9--12---------------------9---|
-----------------------------------------------------------------------------|
-----------------------------------------------------------------------------|

Verse 1
Bm / / / / / / / / / / / /	      Em / / / G / / / F# / / / / / / /

2---------------------------7---------7--------3-------2----------------|
3------------------------------7------8--------3-------2----------------|
4---------------------------------7---9--------4-------3----------------|
4-------------------------------------9--------5-------4----------------|
2-------------------------------------7--------5-------4----------------|
2-------------------------------------7--------3-------2----------------|

Bm / / /			    D / / / Em / / / Bm

2--------2--------------------------5-------7--------2-|
3-----------3-------3---------------7-------8--------3-|
4--------------4--------------------7-------9--------4-|
4-----------------------------------7-------9--------4-|
2--------------------------2--------5-------7--------2-| [drums]
2-----------------------------------5-------7--------2-|
[ Tab from: http://www.guitartabs.cc/tabs/m/me_first_and_the_gimme_gimmes/summertime_tab.html ]
Verse 2
----------------------------------------------------------------|
----------------------------------------------------------------|
--------------------------------9-------------------------------|
9-------------------------------9-------5-------4---------------|
9-------------------------------7-------5-------4---------------|
7---------------------------------------3-------2---------------|

----------------------------------------------------------------|
----------------------------------------------------------------|
--------------------------------7-------9-----------------------|
9-------------------------------7-------9-------9---------------|
9-------------------------------5-------7-------9---------------|
7-----------------------------------------------7---------------|

Solo!
---------------------------------------------------------------------------------|
---------------------------------------------------------------------------------|
11-11-11-11-11-11-11-11-11-11-11-11-11-11-11-11-11--11--11-9--------------9------|
-------------------------------------------------------------12-9--9-12-9---12---|
---------------------------------------------------------------------------------|
---------------------------------------------------------------------------------|

---------------------------------------------------|
---------------------------------------------------|
12----11----9---11----9--------------11---15-------|
---------------------------12---11-----------------|
---------------------------------------------------|
---------------------------------------------------|

------------------------------------------------------------------------|
12--12-12--12-12--12-12--12-12---12-------------------------------------|
--------------------------------------11-9-11-9------------11-----------|
-------------------------------------------------9-12-9-12----12-9-12---|
------------------------------------------------------------------------|
------------------------------------------------------------------------|

------------------------------------------------------------|
------------------------------------------------------------|
------------------------------------------------------------|
12-------12-------12-------12-------12----------------------|
---14-12----14-12----14-12----14-12----14-12-12-12-14--14---|
------------------------------------------------------------|

----------------------------------------------------------------|
----------------------------------------------------------------|
----------------7---------------9-------7-----------------------|
5-------7-------7---------------9-------7-------7---------------|
5-------7-------5---------------7-------5-------7---------------|
3-------5---------------------------------------5---------------|

------------------------------------------------2-|
------------------------------------------------3-|
7-------9-----------------------7-------9-------4-|
7-------9-------9---------------7-------9-------4-|
5-------7-------9---------------5-------7-------2-|
----------------7-------------------------------2-|
Comments