Me First And The Gimme Gimmes - Stand By Your Man Chords & Tabs

 

Stand By Your Man Chords & Tabs

Me First And The Gimme Gimmes Chords & Tabs

Version: 1 Type: Bass Tab 0 ratings
1 star 2 stars 3 stars 4 stars 5 stars
comments

Stand By Your Man Bass Tab

INTRO at 00:01 *=play 8X
G--------------------------+
D-3*--0*------3*--0*-------+
A---------3*----------3*-3-+
E--------------------------+

VERSE at 00:10 *=play 8X
G---------------------------------------------------------------------->
D-3*--3*------------------------3*--3*----------3*--3*--5*--5*--------->
A---------3*--33333232------3*----------1*--1*------------------3*--3*->
E-----------------------3*--------------------------------------------->

VERSE
--------------------------------------------------------------------+
-3*--3*------------------------3*--3*----------3*------3*------3*-3-+
---------3*--33333232------3*----------1*--1*------1*------3*-------+
-----------------------3*-------------------------------------------+
[ Tab from: http://www.guitartabs.cc/tabs/m/me_first_and_the_gimme_gimmes/stand_by_your_man_btab.html ]
CHORUS at 00:46 *=play 8X
G-------------------------------------------------------------------------------+
D-3-3-3-3----------3*--------------3*--3*----------3*----------------------3*-3-+
A----------0*--1*------5*------3*----------0*--1*------3*--0*--5*--1*--3*-------+
E--------------------------3*---------------------------------------------------+

VERSE2 at 01:09 *=play 8X
G--------------------------------------------------------------------+
D-4*--4*------------------------4*--4*----------4*------4*------4*-4-+
A---------4*--44444343------4*----------2*--2*------2*------4*-------+
E-----------------------4*-------------------------------------------+

CHORUS2/OUTRO at 01:27 *=play 8X
G-------------------------------------------------------------------------------->
D-4-4-4-4----------4*--------------4*--4*----------4*---------------------------->
A----------1*--2*------6*------4*----------1*--2*------4*--1*--6*--2-2--4-4--5-5->
E--------------------------4*---------------------------------------------------->

CHORUS2/OUTRO
---------+
-------4-+
-4--2----+
---------+
Comments