Me First And The Gimme Gimmes - Somewhere Over The Rainbow Chords & Tabs

 

Somewhere Over The Rainbow Chords & Tabs

Me First And The Gimme Gimmes Chords & Tabs

Version: 1 Type: Tab 0 ratings
1 star 2 stars 3 stars 4 stars 5 stars
comments

Somewhere Over The Rainbow Tab

Artist: Me first and the gimme gimmes
Song: Over the rainbow
Tabbed by: Daniel McDougall
email: ur_such_a_bore@hotmail.com

Tuning: regular.

    > = keep strumming
    P... = palm mute
    
     . = stop, then carry on with the next chord
          ( in the intro)

listen to the song for strumings patterns.


Chorus

e|------------------|----------------------|
b|------------------|----------------------|
g|------4---5-------|--5------9-----7------|
d|--5---4->-5->-5---|--5->-5--9--7--7--5---|   X2
a|--5->-2---3---5->-|--3---5--7--7--5--5->-|
E|--3-----------3---|------3-----5-----3---|

Verse

e|--------------------------------------------|
b|--------------------------------------------|
g|------------------------------------7-------|
d|--5-5----------7-7---------5-5------5->>>>>-|
a|--5-5->>------ 7-7->>----- 5-5->>---5-------|
E|--3-3----------5-5---------3-3--------------|
      P...         P...        P...
[ Tab from: http://www.guitartabs.cc/tabs/m/me_first_and_the_gimme_gimmes/somewhere_over_the_rainbow_tab.html ]
e|-----------8-8---------------------|
b|-----------7-7---------------------|
g|-----------8-8->>------------7-----|
d|--5-5------7-7------7-7------7->---|
a|--5-5->>------------7-7->>---5-----|
E|--3-3---------------5-5------------|
      P...     P...     P...

Chorus.

Solo.

e|-----------------------------------3-2-----2-3-5-7---7-5-3--|
b|---3-0-3-0-3-0-3-0---3-1-3-1-3-1-3-----3-3------------------|
g|------------------------------------------------------------|
d|------------------------------------------------------------|
a|------------------------------------------------------------|
E|------------------------------------------------------------|

Outro.

e|-------------|------------------------------------12--|
b|-------------|----------------------------------------|
g|-------------|--5----4----2----7---------------10-----|
d|--5----7-----|--5-.--4-.--2-.--7-.-PAUSE-.----9-------|
a|--5->--7->---|--3----2----0----5------------10--------|
E|--3----5-----|----------------------------------------|
Comments