Me First And The Gimme Gimmes - Save The Best For Last Chords & Tabs

 

Save The Best For Last Chords & Tabs

Me First And The Gimme Gimmes Chords & Tabs

Version: 1 Type: Bass Tab 0 ratings
1 star 2 stars 3 stars 4 stars 5 stars
comments

Save The Best For Last Bass Tab

Intro(bass enters at 0:23)
G:-------------------------------------|
D:-------------------------------------|
A:-------------------------------------|x1
E:-555~~~~~--------171717~~~~~---------|

Chorus 1
G:------------------------------------------------------------------|
D:------------------------------------------------------------------|
A:---------5-555555------------------------5-555555--------5~~~-----|x1
E:-5-553-33--------3-335-557-7777775-553-33--------3-335-55---------|

Verse 1
G:------------------------------------------------------------------|
D:------------------------------------------------------------------|
A:---------55555555--------5555555533333333--------3333-------------|x1
E:-33333333--------33335555----------------33333333----333355555555-|

Chorus 2
G:----------------------------------------------------------|
D:----------------------------------------------------------|
A:---------5-555555------------------------5-555555---------|x1
E:-5-553-33--------3-335-557-7777775-553-33--------3-335-55-|

G:-----------------------------------|
D:-----------------------------------|
A:-5~~~~~~~----------------5~----/10-|x1
E:-----------------------------------|
[ Tab from: http://www.guitartabs.cc/tabs/m/me_first_and_the_gimme_gimmes/save_the_best_for_last_btab.html ]
Verse 2
G:------------------------------------------------------------------------------|
D:------------------------------------------------------------------------------|
A:-10101010101010105555555510101010----5555555533333333--------3333-------------|x1
E:---------------------------------5555----------------33333333----333355555555-|

Bridge
G:--------------------------------------------------------------------------|
D:--------------------------------------------------------------------------|
A:---------5~------------------------------5~--------------5~---------------|x1
E:-5~--3~----------3~--5~--7~------5~--3~----------3~--5~-------------------|

G:----------------------------------|
D:----------------------------------|
A:-33333333--------3333-------------|x1
E:---------33333333----333355555555-|

Chorus 3/Outro
G:-----------------------------------------------------------------|
D:-----------------------------------------------------------------|
A:---------5-555555------------------------5-555555------7~~~------|x1
E:-5-553-33--------3-335-557-7777775-553-33--------3-35-5----------|

G:--------------------------------------------------|
D:--------------------------------------------------|
A:-----------------5~~~~~~~----------------5~~~-----|x1
E:-3333333355555555---------------------------------|
Comments