Me First And The Gimme Gimmes - Popeye The Sailor Man Chords & Tabs

 

Popeye The Sailor Man Chords & Tabs

Me First And The Gimme Gimmes Chords & Tabs

Version: 1 Type: Bass Tab 0 ratings
1 star 2 stars 3 stars 4 stars 5 stars
comments

Popeye The Sailor Man Bass Tab

   
Intro
G:-12-12-12-10-10-9-12-12-12-12-12-12-12-14-12-14-17-17-14-12-12-12-12-12-|
D:------------------------------------------------------------------------|
A:------------------------------------------------------------------------|x1
E:------------------------------------------------------------------------|

G:-12-14-12-14-17-16-14-12-14-12-9-7-9-12-12-12-10-10-9\5~~~-------------|
D:-----------------------------------------------------------------------|
A:-----------------------------------------------------------------------|x1
E:-----------------------------------------------------------------------|

G:-12-12-12-10-10-9-12-12-12-12-12-12-12-14-12-14-17-17-14-12-12-12-12-12-|
D:------------------------------------------------------------------------|
A:------------------------------------------------------------------------|x1
E:------------------------------------------------------------------------|

G:-12-14-12-14-17-16-14-12-14-12-9-7-9-12-12-12-10-10-9\0000000000000000-|
D:-----------------------------------------------------------------------|
A:-----------------------------------------------------------------------|x1
E:-----------------------------------------------------------------------|

G:------------------|
D:-5555555555555555-|
A:------------------|x1
E:------------------|

Chorus 1
G:------------------------------------------------------------------|
D:-----------------33333333--------33333333--------55555555---------|
A:-3333333333333333--------33333333--------33333333--------33333333-|x2
E:------------------------------------------------------------------|

Verse
G:----------------------------------|
D:-33333333--------55555555---------|
A:---------33333333--------33333333-|x2
E:----------------------------------|

G:----------------------------------|
D:-33333333----------------33333333-|
A:---------3333333333333333---------|x1
E:----------------------------------|

G:----------------------------------|
D:-33333333--------55555555---------|
A:---------33333333--------33333333-|x1
E:----------------------------------|
[ Tab from: http://www.guitartabs.cc/tabs/m/me_first_and_the_gimme_gimmes/popeye_the_sailor_man_btab.html ]
Chorus 2
G:------------------------------------------------------------------|
D:-----------------33333333--------33333333--------55555555---------|
A:-3333333333333333--------33333333--------33333333--------33333333-|x1
E:------------------------------------------------------------------|

Bridge/Solo
G:------------------------------------------------------------------|
D:-----------------5555555555555555--------3333333355555555---------|
A:-3333333333333333----------------33333333----------------33333333-|x1
E:------------------------------------------------------------------|

G:------------------------------------------------------------------|
D:-----------------5---5---5---5-----------3---3---5---5------------|
A:-3---3---3---3-------------------3---3-------------------3---3----|x1
E:------------------------------------------------------------------|

G:----------------------------------|  |----------------------------------|
D:-55555555555555555555555555555555-|  |-33333333--------55555555---------|
A:----------------------------------|x1|---------33333333--------33333333-|x1
E:----------------------------------|  |----------------------------------|

G:----------------------------------|
D:----------------------------------|
A:-3~~~----3~~~----3~~~----3~~~-----|x1
E:----------------------------------|

Chorus 3
G:------------------------------------------------------------------|
D:-----------------55555555--------55555555--------77777777---------|
A:-5555555555555555--------55555555--------55555555--------55555555-|x1
E:------------------------------------------------------------------|

Verse 2
G:----------------------------------|
D:-55555555--------77777777---------|
A:---------55555555--------55555555-|x2
E:----------------------------------|

G:----------------------------------|
D:-55555555----------------55555555-|
A:---------5555555555555555---------|x1
E:----------------------------------|

G:----------------------------------|
D:-55555555--------77777777---------|
A:---------55555555--------55555555-|x2
E:----------------------------------|

Repeat:
Chorus 3

Interlude
G:----------------------------------|
D:----------------------------------|
A:-5~~~----5~~~----5~~~----5~~~-----|x1
E:----------------------------------|

Chorus 4 
G:--------------------------------------------------------------|
D:-----------------77777777--------77777777--------55555555-----|
A:-7777777777777777--------77777777--------77777777--------7~---|x1
E:--------------------------------------------------------------|
Comments