Me First And The Gimme Gimmes - Phantom Of The Opera Chords & Tabs

 

Phantom Of The Opera Chords & Tabs

Me First And The Gimme Gimmes Chords & Tabs

Version: 2 Type: Tab 0 ratings
1 star 2 stars 3 stars 4 stars 5 stars
comments

Phantom Of The Opera Tab

   
Intro
e|----------------------3^3-1--------------------------------|
B|-3--3-1-3--3-1-3--3-1------1--3--3-1-3--3-1-3--3-1-3-1-3-1-|
G|-----------------------------------------------------------|
D|-----------------------------------------------------------|
A|-----------------------------------------------------------|
E|-----------------------------------------------------------|

e|---------------------------------------------------------------------|
B|---------------------------------------------------------------------|
G|--7-7-7-7-7-7-7-7-7-7-7-7-7-6-5-4-3-3-3-3-3-3-3-3-3-3-3-3-3-3-4-5-6--|
D|--7-7-7-7-7-7-7-7-7-7-7-7-7-6-5-4-3-3-3-3-3-3-3-3-3-3-3-3-3-3-4-5-6--|
A|--5-5-5-5-5-5-5-5-5-5-5-5-5-4-3-2-1-1-1-1-1-1-1-1-1-1-1-1-1-1-2-3-4--|
E|---------------------------------------------------------------------|

Verse 1
e|---------------------------------------------------------------|
B|---------------------------------------------------------------|
G|-7---------------------------------------------5---------------|
D|-7--7-7-7-7-7-7-7-7-7-7-7-7-7-7-5--------------5--5-5-5-5-5-5--|
A|-5--5-5-5-5-5-5-5-5-5-5-5-5-5-5-5--5-5-5-5-5-5-3--3-3-3-3-3-3--|
E|--------------------------------3--3-3-3-3-3-3-----------------|
      PM........................|    PM........|    PM.........|

e|-----------------------------------------------------|
B|-----------------------------------------------------|
G|--7--------------5--7--------------------------------|
D|--7--7-7-7-7-7-7-5--7---7-7-7-7-7-7-5----------------|
A|--5--5-5-5-5-5-5-3--5---5-5-5-5-5-5-5---5-5-5-5-5-5--|
E|------------------------------------3---3-3-3-3-3-3--|
       PM........|	  PM........|	  PM........|

|---------------------------------------|
|---------------------------------------|
|-5--------------7----------------5--7--|
|-5--5-5-5-5-5-5-7---7-7-7-7-7-7--5--7--|
|-3--3-3-3-3-3-3-5---5-5-5-5-5-5--3--7--|
|---------------------------------------|
     PM........|     PM........|

Pre-Chorus 1:
e|-----------------------------------------------------------------|
B|-----------------------------------------------------------------|
G|-3-3-3-3-3-3-3-3-5-5-5-5-5-5-5-5-7-7-7-7-7-7-7-7-7-7-7-7-7-7-7-7-|
D|-3-3-3-3-3-3-3-3-5-5-5-5-5-5-5-5-7-7-7-7-7-7-7-7-7-7-7-7-7-7-7-7-|
A|-1-1-1-1-1-1-1-1-3-3-3-3-3-3-3-3-5-5-5-5-5-5-5-5-5-5-5-5-5-5-5-5-|
E|-----------------------------------------------------------------|

Pre Chorus Fill:
e|----------------------------------------------------------------------|
B|----------------------------------------------------------------------|
G|77777-7-7-7-5-5-5-5-5-5-5-5-10-10-10-10-10-10-10-10-9-7-7-7-7-7-7-7---|
D|XXXXX-X-X-X-X-X-X-X-X-X-X-X-X--X--X--X--X--X--X--X--X-X-X-X-X-X-X-X---|
A|55555-5-5-5-3-3-3-3-3-3-3-3-8--8--8--8--8--8--8--8--7-5-5-5-5-5-5-5---|
E|----------------------------------------------------------------------|

Chorus 1
e|----------------------------------------------------------------------|
B|----------------------------------------------------------------------|
G|77777-7-7-7-7-7-7-7-7-7-3-3-3-3-3-3-3-3-3-3-3-3-3-3-7-7-7-7-7-7-7-7---|
D|77777-7-7-7-7-7-7-7-7-7-3-3-3-3-3-3-3-3-3-3-3-3-3-3-7-7-7-7-7-7-7-7---|
A|55555-5-5-5-5-5-5-5-5-5-1-1-1-1-1-1-1-1-1-1-1-1-1-1-5-5-5-5-5-5-5-5---|
E|----------------------------------------------------------------------|

e|--------------------------------------|
B|--------------------------------------|
G|-7-7-7-7-6-5-4-3-3-3-3-3-4-5-4--------|
D|-7-7-7-7-6-5-4-3-3-3-3-3-4-5-4--------|
A|-5-5-5-5-4-3-2-1-1-1-1-1-6-3-2--------|
E|--------------------------------------|

Verse 2
e|---------------------------------------------------------------|
B|---------------------------------------------------------------|
G|--------------------------------5------------------------------|
D|-5------------------------------5--5-5-5-5-5-5-3---------------|
A|-5--5-5-5-5-5-5-5-5-5-5-5-5-5-5-3--3-3-3-3-3-3-3--3-3-3-3-3-3--|
E|-3--3-3-3-3-3-3-3-3-3-3-3-3-3-3----------------1--1-1-1-1-1-1--|
      PM........................|    PM........|    PM.........|

e|--------------------------------------------------------------|
B|--------------------------------------------------------------|
G|-------------------------------5------------------------------|
D|-5--------------5--------------5--5-5-5-5-5-5-3---------------|
A|-5--5-5-5-5-5-5-5--5-5-5-5-5-5-3--3-3-3-3-3-3-3--3-3-3-3-3-3--|
E|-3--3-3-3-3-3-3-3--3-3-3-3-3-3----------------1--1-1-1-1-1-1--|
      PM........|    PM........|    PM........|    PM........|
[ Tab from: http://www.guitartabs.cc/tabs/m/me_first_and_the_gimme_gimmes/phantom_of_the_opera_tab_ver_2.html ]
e|-----------------------------|
B|-----------------------------|
G|-----------------------------|
D|-5----------------5----------|
A|-5--5-5-5-5-5-5-5-5----------|
E|-3--3-3-3-3-3-3-3-3----------|
      PM........|

Pre-Chorus 2:
e|-----------------------------------------|
B|-----------------------------------------|
G|-7-7-7-7-7-7-7-7-10-10-10-10-10-10-10-10-|
D|-7-7-7-7-7-7-7-7-10-10-10-10-10-10-10-10-|
A|-5-5-5-5-5-5-5-5-8--8--8--8--8--8--8--8--|
E|-----------------------------------------|

e|-------------------------------------------------|
B|-------------------------------------------------|
G|-12-12-12-12-12-12-12-12-12-12-12-12-12-12-12-12-|
D|-12-12-12-12-12-12-12-12-12-12-12-12-12-12-12-12-|
A|-10-10-10-10-10-10-10-10-10-10-10-10-10-10-10-10-|
E|-------------------------------------------------|


Chorus 2:

B|----------------------------------------------------------------------|
G|----------------------------------------------------------------------|
D|12121212121212121212121212-12-12-12-8-8-8-8-8-8-8-8-8-8-8-8-8-8-8-8---|
A|12121212121212121212121212-12-12-12-8-8-8-8-8-8-8-8-8-8-8-8-8-8-8-8---|
E|10101010101010101010101010-10-10-10-6-6-6-6-6-6-6-6-6-6-6-6-6-6-6-6---|
E|----------------------------------------------------------------------|

e|----------------------------------------------------------------|
B|----------------------------------------------------------------|
G|-12-12-12-12-12-12-12-12-12-12-12-12-11-10-9--8-8-8-8-7-7-7-7---|
D|-12-12-12-12-12-12-12-12-12-12-12-12-11-10-9--8-8-8-8-7-7-7-7---|
A|-10-10-10-10-10-10-10-10-10-10-10-10-9--8--7--6-6-6-6-5-5-5-5---|
E|----------------------------------------------------------------|

Verse 3
e|----------------------------------------------------------------|
B|----------------------------------------------------------------|
G|---------------------------------2--------------7---------------|
D|--2------------------------------2--2-2-2-2-2-2-7--7-7-7-7-7-7--|
A|--2--2-2-2-2-2-2-2-2-2-2-2-2-2-2-0--0-0-0-0-0-0-5--5-5-5-5-5-5--|
E|--0--0-0-0-0-0-0-0-0-0-0-0-0-0-0--------------------------------|
       PM........................|    PM........|    PM........|

e|----------------------------------------------------------------|
B|----------------------------------------------------------------|
G|---------------------------------2--------------7---------------|
D|--2------------------------------2--2-2-2-2-2-2-7--7-7-7-7-7-7--|
A|--2--2-2-2-2-2-2-2-2-2-2-2-2-2-2-0--0-0-0-0-0-0-5--5-5-5-5-5-5--|
E|--0--0-0-0-0-0-0-0-0-0-0-0-0-0-0--------------------------------|
       PM........................|    PM........|    PM........|

e|--------------------|
B|--------------------|
G|--------------------|
D|--2--------------2--|
A|--2--2-2-2-2-2-2-2--|
E|--0--0-0-0-0-0-0-0--|
       PM........|

Pre-Chorus 3:
e|-----------------------------------------------------------------|
B|-----------------------------------------------------------------|
G|-5-5-5-5-5-5-5-5-7-7-7-7-7-7-7-7-9-9-9-9-9-9-9-9-9-9-9-9-9-9-9-9-|
D|-5-5-5-5-5-5-5-5-7-7-7-7-7-7-7-7-9-9-9-9-9-9-9-9-9-9-9-9-9-9-9-9-|
A|-3-3-3-3-3-3-3-3-5-5-5-5-5-5-5-5-7-7-7-7-7-7-7-7-7-7-7-7-7-7-7-7-|
E|-----------------------------------------------------------------|

Pre-chorus fill 2:
e|----------------------------------------------------------------------|
B|----------------------------------------------------------------------|
G|-999999997-7-7-7-7-7-7-7-12-12-12-12-12-12-12-12-11-9-9-9-9-9-9-9-9---|
D|-X-X-X-X-X-X-X-X-X-X-X-X-X-X-X-X-X--X--X--X--X--X--X--X--X--X-X-X-X---|
A|-777777775-5-5-5-5-5-5-5-10-10-10-10-10-10-10-10-9--7-7-7-7-7-7-7-7---|
E|----------------------------------------------------------------------|

e|---------------------------------------------------------------------|
B|---------------------------------------------------------------------|
G|--9-9-9-9-9-9-9-9-9-9-9-9-9-9-9-9-5-5-5-5-5-5-5-5-5-5-5-5-5-5-5-5-5--|
D|--9-9-9-9-9-9-9-9-9-9-9-9-9-9-9-9-5-5-5-5-5-5-5-5-5-5-5-5-5-5-5-5-5--|
A|--7-7-7-7-7-7-7-7-7-7-7-7-7-7-7-7-3-3-3-3-3-3-3-3-3-3-3-3-3-3-3-3-3--|
E|---------------------------------------------------------------------|

e|---------------------------------------------------------------|
b|---------------------------------------------------------------|
g|--9-9-9-9-9-9-9-9-9-9-9-9-8-7-6-5-5-5-5-5-5-5-5-5-5-5-5-6-7-8--|
d|--9-9-9-9-9-9-9-9-9-9-9-9-8-7-6-5-5-5-5-5-5-5-5-5-5-5-5-6-7-8--|
a|--7-7-7-7-7-7-7-7-7-7-7-7-6-5-4-3-3-3-3-3-3-3-3-3-3-3-3-4-5-6--|
E|---------------------------------------------------------------|
Comments