Me First And The Gimme Gimmes - Over The Rainbow Chords & Tabs

 

Over The Rainbow Chords & Tabs

Me First And The Gimme Gimmes Chords & Tabs

Version: 1 Type: Tab 0 ratings
1 star 2 stars 3 stars 4 stars 5 stars
comments

Over The Rainbow Tab

   
Over The Rainbow
Me First And The Gimme Gimmies
Tabbed By Chris

Bass Intro Followed by
e|--------------------|
B|--------------------|
G|--------------------|
D|-5------------------|
A|-5 pick scrape------|
E|-3------------------|

Chorus
e|---------------------------------------------------------------------|
B|---------------------------------------------------------------------|
G|----------------------------------------------55555555---------------|
D|-55555555--99999999-1010101010101010-55555555-55555555-55555555------|
A|-55555555--99999999-1010101010101010-55555555-33333333-55555555------|
E|-33333333--77777777--8 8 8 8 8 8 8 8-33333333----------33333333------|

e|---------------------------------------------------------------------|
B|---------------------------------------------------------------------|
G|-99999999------7777--------------------------------------------------|
D|-99999999-7777-7777-5555---------------------------------------------|
A|-77777777-7777-5555-5555---------------------------------------------|
E|----------5555------3333---------------------------------------------|
[ Tab from: http://www.guitartabs.cc/tabs/m/me_first_and_the_gimme_gimmes/over_the_rainbow_tab.html ]
Verse
e|---------------------------------------------------------------------|
B|---------------------------------------------------------------------|
G|----------------------------77777777----------77777777----------7777-|
D|-55555555-77777777-55555555-77777777-55555555-77777777-77777777-7777-|
A|-55555555-77777777-55555555-55555555-55555555-55555555-77777777-5555-|
E|-33333333-55555555-33333333----------33333333----------55555555------|
pm  .......  .......  .......           .......  .......  .......

Solo
e|---------------------------------------------------------------------|
B|-0-3--0-3--0-3-0--3-1-3--1-3-1-3-/8-7----7-8-10-10b(12)-8------------|
G|--------------------------------------7------------------------------|
D|---------------------------------------------------------------------|
A|---------------------------------------------------------------------|
E|---------------------------------------------------------------------|

Outro
e|--------------------------------------3------------------------------|
B|------------------------------------3--------------------------------|
G|--------------------------7-------4----------------------------------|
D|-55555555-77777777-10-9-7-7-----5------------------------------------| 
A|-55555555-77777777-10-9-7-5------------------------------------------|
E|-33333333-55555555--8 7-5--------------------------------------------|
Comments