Me First And The Gimme Gimmes - Only The Good Die Young Chords & Tabs

 

Only The Good Die Young Chords & Tabs

Me First And The Gimme Gimmes Chords & Tabs

Version: 2 Type: Bass Tab 0 ratings
1 star 2 stars 3 stars 4 stars 5 stars
comments

Only The Good Die Young Bass Tab

Song: Only the goods die young
Band: Me first and the gimme gimmes
Album: ?
tabbed by: Carlos Pino
[ Tab from: http://www.guitartabs.cc/tabs/m/me_first_and_the_gimme_gimmes/only_the_good_die_young_btab_ver_2.html ]
    verse
G:---------------------------------------------------------------
D:---------------------------------------------------------------
A:---------------------------------------------------------------3-3-3
E:-1-1-1-1-1-1--3-3-3--5-5-5--1-1-1-1-1-1--3-3-3---------

    chorus 
G:---------------------------------------------------------------
D:---------------------------------------------------------------
A:-3-3-3--------------------3-3-3----------------------------
E:----------1-1-1--3--3-3------------------------------------
Comments