Me First And The Gimme Gimmes - Me And Julio Chords & Tabs

 

Me And Julio Chords & Tabs

Me First And The Gimme Gimmes Chords & Tabs

Version: 1 Type: Bass Tab 0 ratings
1 star 2 stars 3 stars 4 stars 5 stars
comments

Me And Julio Bass Tab

-----------------------------------------------------------------------
              ME AND JULIO      ME FIRST AND THE GIMMIE GIMMIES
-----------------------------------------------------------------------

INTROx4
G]-------------]
D]-------------]
A]---5-----7-7-]
E]-5---5-5-----]

VERSE
G]-------------]
D]-------------]
A]----5>-7>----]
E]-5>-------5>-]

PART 2 OF VERSE
G]-------------]
D]-------------]
A]-7>----7>----]
E]----5>----5>-]
[ Tab from: http://www.guitartabs.cc/tabs/m/me_first_and_the_gimme_gimmes/me_and_julio_btab.html ]
VERSE
G]-----------------------------------------------------------------------
D]-----------------------------------------------------------------------
A]-5>----5>-----7>-5>------7>-5>-----------------7>----5-5-----7>--------
E]----5>----5-5-------3-5>-------3-5>-5>-3-3-5-5----5>-----5-5----5>-3-3-

G]---------------------]
D]---------------------]
A]----7>----5-5-----7>-]
E]5-5----5>-----5-5----]

CHORUS OVER WHISTLE SOLO
VERSE
CHORUS

OUTRO
G]----------]
D]----------]
A]-------5>-]
E]-5>-0>----]

Comments