Me First And The Gimme Gimmes - Mandy Chords & Tabs

 

Mandy Chords & Tabs

Me First And The Gimme Gimmes Chords & Tabs

Version: 1 Type: Tab 0 ratings
1 star 2 stars 3 stars 4 stars 5 stars
comments

Mandy Tab

MANDY - Me First and the Gimme Gimmes
By:Mr. Steven Stollings (grim_18_03@excite.com)

e|---------------------------------------------------------------------------|
B|---------------------------------------------------------------------------|
G|-3-----------------2-----3-----------------------2-------------------------|
D|-3-----------------3-----3-----------------------3-------------------------|
A|-1-----------------0-----1-----------------------0-------------------------|
E|---------------------------------------------------------------------------|
   I remember all my life, raining down as cold as ice

e|---------------------------------------------------------------------------|
B|---------------------------------------------------------------------------|
G|5----------------3---------------------------------------------------------|
D|5----------------3----------------------6--------------------3-------------|
A|3----------------1----------------------6--------------------3-------------|
E|----------------------------------------4--------------------1-------------|
 Shadows of a man, Face through a window, flying in the light, night goes into

e|---------------------------------------------------------------------------|
B|---------------------------------------------------------------------------|
G|3--------------------2-----3-------------------2---------------------------|
D|3--------------------3-----3-------------------3---------------------------|
A|1--------------------0-----1-------------------0---------------------------|
E|---------------------------------------------------------------------------|
  Morning just another day, happy people pass my way

e|---------------------------------------------------------------------------|
B|---------------------------------------------------------------------------|
G|2-----------------------3--------------------------------------------------|
D|2-----------------------3---------------6----------------------------------|
A|3-----------------------1---------------6---------------------------------|
E|----------------------------------------4----------------------------------|
 Looking in their eyes, I see a memory, I never realized how happy you made me

Chorus-
e|---------------------------------------------------------------------------|
B|---------------------------------------------------------------------------|
G|---3----------------------8------------------------------------------------|
D|---3----------5-----------8-------------3----------------------------------|
A|---1----------5-----------6-------------3----------------------------------|
E|--------------3-------------------------1---------------------------------|
  Oh Mandy, You came and you gave without taking, but i sent you away
[ Tab from: http://www.guitartabs.cc/tabs/m/me_first_and_the_gimme_gimmes/mandy_tab.html ]
e|---------------------------------------------------------------------------|
B|---------------------------------------------------------------------------|
G|---3-----------------------8-----------------------------------------------|
D|---3----------5------------8----------------3------------------------------|
A|---1----------5------------6----------------3------------------------------|
E|--------------3-----------------------------1------------------------------|
  Oh Mandy, You kissed me and stopped me from shaking and i need you today

e|---------------------------------------------------------------------------|
B|---------------------------------------------------------------------------|
G|---3-----------------------8-----------------------------------------------|
D|---3----------5------------8----------------3------------------------------|
A|---1----------5------------6----------------3------------------------------|
E|--------------3-----------------------------1------------------------------|
  Oh Mandy

Lead
e|---------------------------------------------------------------------------|
B|---------------------------------------------------------------------------|
G|---------------------------------------------------------------------------|
D|-5----5-7-8-7---7-8-10-8---8-10-12-12-13-10-8-8-10-------------------------|
A|---------------------------------------------------------------------------|
E|---------------------------------------------------------------------------|

  Rhythm during the lead
e|---------------------------------------------------------------------------|
B|---------------------------------------------------------------------------|
G|---------------------------------------------------------------------------|
D|---------------------------------------------------------------------------|
A|--5----------7---------8------10--------------3----------------------------|
E|--3----------5---------6------8---------------1----------------------------|

Slowing back down chorus
e|---------------------------------------------------------------------------|
B|---------------------------------------------------------------------------|
G|---------------------------------------------------------------------------|
D|---5----------------10-------------------5---------------10----------------|
A|---3--------7-------8---------5----------3-------7-------8-------5---------|
E|------------5-----------------3------------------5---------------3---------|

e|---------------------------------------------------------------------------|
B|---------------------------------------------------------------------------|
G|---------------------------------------------------------------------------|
D|---5---4---------------------------------5---4-----------------------------|
A|---3---2----7-------3---------5----------3---2---7-------3-------5---------|
E|------------5-------1---------3------------------5-------1-------3---------|

This is my first tab....if you find something wrong, e-mail me(grim_18_03@excite.com)
Or if you like e-mail me and me good job
Or if you are an ass i guess you could send me some hate mail, either ways i don't care
Comments